Song name
# A B C D E F G H I J K L M N O P Q R S T U V W X Y Z

Turbonegro - Screwed And Tattoed tab

Intro
e-----------------------------------------------------------------|
b-----------------------------------------------------------------|
G-------------------------------------------------7-------9-9-9-9-|
D-7-------------------------------4---------------7-------9-9-9-9-|
A-7-------------------------------4---------------5-------7-7-7-7-|
E-5-------------------------------2-------------------------------|

e-----------------------------------------------------------------|
b-----------------------------------------------------------------|
G-----------------7-7-7-7-7-7-7-7-----------------7-7-7-7-9-9-9-9-|
D-7-7-7-7-7-7-7-7-7-7-7-7-7-7-7-7-4-4-4-4-4-4-4-4-7-7-7-7-9-9-9-9-|
A-7-7-7-7-7-7-7-7-5-5-5-5-5-5-5-5-4-4-4-4-4-4-4-4-5-5-5-5-7-7-7-7-|
E-5-5-5-5-5-5-5-5-----------------2-2-2-2-2-2-2-2-----------------|

Bridge
e-----------------------------------------------------------------|
b-----------------------------------------------------------------|
G-----------------------------------------------------------------|
D-2-4-x-x-x-x-x-x-2-4-x-x-x-x-x-x-2-4-x-x-x-x-x-x-2-4-x-x-x-x-x-x-|
A-2-4-x-x-x-x-x-x-2-4-x-x-x-x-x-x-2-4-x-x-x-x-x-x-2-4-x-x-x-x-x-x-|
E-0-2-x-x-x-x-x-x-0-2-x-x-x-x-x-x-0-2-x-x-x-x-x-x-0-2-x-x-x-x-x-x-|

Verse
e-----------------------------------------------------------------|
b-----------------------------------------------------------------|
G-----------------7-7-7-7-9-9-9-9-----------------7-7-7-7-9-9-9-9-|
D-7-7-7-7-7-7-7-7-7-7-7-7-9-9-9-9-7-7-7-7-7-7-7-7-7-7-7-7-9-9-9-9-|
A-7-7-7-7-7-7-7-7-5-5-5-5-7-7-7-7-7-7-7-7-7-7-7-7-5-5-5-5-7-7-7-7-|
E-5-5-5-5-5-5-5-5-----------------5-5-5-5-5-5-5-5-----------------|

e-------------------------------------------------------------------|
b-------------------------------------------------------------------|
G-7-7-7-7-7-7-7-7-9-9-9-9-9-9-9-9-----------------6/7-7-7-7-9-9-9-9-|
D-7-7-7-7-7-7-7-7-9-9-9-9-9-9-9-9-9-9-9-9-9-9-9-9-6/7-7-7-7-9-9-9-9-|
A-5-5-5-5-5-5-5-5-7-7-7-7-7-7-7-7-9-9-9-9-9-9-9-9-4/5-5-5-5-7-7-7-7-|
E---------------------------------7-7-7-7-7-7-7-7-------------------|

Chorus
e-----------------------------------------------------------------|
b-----------------------------------------------------------------|
G-----------------7-7-7-7-7-7-7-7-----------------7-7-7-7-9-9-9-9-|
D-7-7-7-7-7-7-7-7-7-7-7-7-7-7-7-7-4-4-4-4-4-4-4-4-7-7-7-7-9-9-9-9-|
A-7-7-7-7-7-7-7-7-5-5-5-5-5-5-5-5-4-4-4-4-4-4-4-4-5-5-5-5-7-7-7-7-|
E-5-5-5-5-5-5-5-5-----------------2-2-2-2-2-2-2-2-----------------|

e-----------------------------------------------------------------|
b-----------------------------------------------------------------|
G-----------------7-7-7-7-7-7-7-7-----------------7-7-7-7-9-9-9-9-|
D-7-7-7-7-7-7-7-7-7-7-7-7-7-7-7-7-4-4-4-4-4-4-4-4-7-7-7-7-9-9-9-9-|
A-7-7-7-7-7-7-7-7-5-5-5-5-5-5-5-5-4-4-4-4-4-4-4-4-5-5-5-5-7-7-7-7-|
E-5-5-5-5-5-5-5-5-----------------2-2-2-2-2-2-2-2-----------------|

Verse 2
e-----------------------------------------------------------------|
b-----------------------------------------------------------------|
G-----------------7-7-7-7-9-9-9-9-----------------7-7-7-7-9-9-9-9-|
D-7-7-7-7-7-7-7-7-7-7-7-7-9-9-9-9-7-7-7-7-7-7-7-7-7-7-7-7-9-9-9-9-|
A-7-7-7-7-7-7-7-7-5-5-5-5-7-7-7-7-7-7-7-7-7-7-7-7-5-5-5-5-7-7-7-7-|
E-5-5-5-5-5-5-5-5-----------------5-5-5-5-5-5-5-5-----------------|

e-------------------------------------------------------------------|
b-------------------------------------------------------------------|
G-7-7-7-7-7-7-7-7-9-9-9-9-9-9-9-9-----------------6/7-7-7-7-9-9-9-9-|
D-7-7-7-7-7-7-7-7-9-9-9-9-9-9-9-9-9---------------6/7-7-7-7-9-9-9-9-|
A-5-5-5-5-5-5-5-5-7-7-7-7-7-7-7-7-9---------------4/5-5-5-5-7-7-7-7-|
E---------------------------------7-(pick-slide)--------------------|

Intro     x1
Bridge    x1
Verse     x2
Chorus    x2
Bridge    x1
Verse 2   x2
Chorus   Play till end

(if someone wants to post the lead gutair part- the fill that euroboy plays over 
the song please do)
Tap to rate this tab
# A B C D E F G H I J K L M N O P Q R S T U V W X Y Z