Turbonegro - What Is Rock tab

Standard tuning

~ = let ring
/= slide up to
\= slide down to
x = times
example: ---2x24---------     there you play the second fret 24 times.

Listen for timing.

Intro:
e----------------------------------------------------------------|
B------------------7---------------------------------------------|
G----------7~---------10~---------7--5--4--5----------5----------|
D-----------------------------------------------5--7-----7~------|
A----------------------------------------------------------------|
E----------------------------------------------------------------|

e-----------------------------------------------------------------|
B---------------------------------------------------8----10----11-|
G-------5~------7~------9~----------7----9----10------------------|
D-------7-------9------10-----------------------------------------|
A-----------------------------------------------------------------|
E-----------------------------------------------------------------|

e----------------------------------------------------------------|
B----12~--------10-----------------------------------------------|
G------------------------11--------8----\4~----------------------|
D----------------------------------------------------------------|
A----------------------------------------------------------------|
E----------------------------------------------------------------|

Play that 2 times.

Listen for tempo

e----------------------------------------------------------------|
B----------------------------------------------------------------|
G----------------------------------------------------------------|
D----------------------------------------------------------------|
A----------------------------------------------------------------|
E--2-2-2-2-2-2-2-2-2-2-2-/5-5-5-5-5-5-5-5-4-4-4-4-4-4-4-4--------|
pm . . . . . . . . . . .  . . . . . . . . . . . . . . . .


e----------------------------------------------------------------|
B----------------------------------------------------------------|
G------------------6-7-7-7--6--------4---------------------------|
D--2--2---4--------6-7-7-7--6-7-7-7--4-5-5-5---------------------|
A--2--2---4--------4-5-5-5--4-7-7-7--2-5-5-5---------------------|
E--0--0---2x16----------------5-5-5----3-3-3---------------------|

Riff 1:
e------------------------------------------------------------------------|
B------------------------------------------------------------------------|
G---2------------------------------------------6-7-7-7--6--------4-------|
D---2--2---4------7-----6-------2--2---4-------6-7-7-7--6-7-7-7--4-5-5-5-|
A---0--2---4------7-----6-------2--2---4-------4-5-5-5--4-7-7-7--2-5-5-5-|
E------0---2x16---5x8---4x8-----0--0---2x16---------------5-5-5----3-3-3-|


Still working on the song. Come back tomorrow
Tap to rate this tab
 
# A B C D E F G H I J K L M N O P Q R S T U V W X Y Z