Turbonegro - City Of Satan tab

-----------------------------------------------------------------------------
                        CITY OF SATAN - Turbonegro
-----------------------------------------------------------------------------

Tabbed by: Sir Sidd Sixx
Email: sirsiddsixx@web.de

Tuning: Standart


A great, little bit different Turbonegro Song, but one of my favorite to play.
I play it that way, also on concerts.

-----
INTRO
-----

e|------------------|
H|------------------|
G|------------------|
D|0h2-2~~~~0h2-2~~~~|
A|------------------|
E|------------------|

----------
MAIN THEME
----------

e|--------------------------------|
H|------------8-------------------|
G|7-9---------7---7-9-------------|
D|7-9---------5---7-9-------------|
A|5-7---------5---5-7-------------|
E|5-7-------------5-7-------------|


------
BRIDGE
------

Gtr.1
e|-------||----------||----------------|
H|-------||----------||----------------|
G|2------||----5-----||----------------|
D|2------||--4-5-----||7-7-7-7-7-------|
A|0------||0-2-3-----||5-5-5-5-5-------|
E|-------||----------||----------2b3---|

Gtr.2
e|-------||----------||----------------|
H|-------||----1-----||----------------|
G|2------||----2-----||----------------|
D|2------||----2-----||7-7-7-7-7-------|
A|0------||0---0-----||7-7-7-7-7-------|
E|-------||--3-------||----------2b3---|


-------
REFRAIN
-------

e|--------------------------------|
H|------------8-------------------|
G|7-9---------7---7-9-------------|
D|7-9---------5---7-9-------------|
A|5-7---------5---5-7-------------|
E|5-7-0-0-0-0-----5-7-0-0-0-0-0-0-|

-------
REFRAIN (2nd Part)
-------

Gtr.1  (play it 4 times)
e|--------------------------------|
H|--------------------------------|
G|5-----7---------7-----9---------|
D|5-----7---------7-----9---------|
A|3-----5---------5-----7---------|
E|--------------------------------|

Gtr.2   (play it 2 times)
e|3---------------0---------------||3---------------------------0-|
H|3-----3-----------3p0-0---------||3-----3---------------------0-|
G|0-----2---------------1---------||0-----2-----------------------|
D|2-----0---------------2---------||2-----0-----------------------|
A|3---------------------2---------||3---------------0h3h5-p3------|
E|--------------------------------||-------------------------0----|

-----
LICKS
-----

e|---------------||---------------|
H|---------------||7br8-----------|
G|---------------||-----9-7-------|
D|2p0h2p0h2p0h2p0||---------9-7---|
A|---------------||-------------10|
E|---------------||---------------|


e|-----------||----------||15~~14~~------------------------------------------
H|-----------||-----15---||--------15b17-15b17~~17pbr15-12-----12-15p14p12-15
G|-----------||14b16--14~||12~~11~~-----------------------14b15--------------
D|-----5-----||----------||--------------------------------------------------
A|5/7------5-||----------||--------------------------------------------------
E|-----------||----------||--------------------------------------------------

e|12-15p14p12-15b17--17p15----------------------15---------------------|
H|------------------------17p15-17p15-15\13-15b17-15b17~~15p13p12-13b15|
G|---------------------------------------------------------------------|
D|---------------------------------------------------------------------|
A|---------------------------------------------------------------------|
E|---------------------------------------------------------------------|


e|--------------------------------------------------------------|
H|--------------------------------------------------------------|
G|--------------------------------------7~----------------------|
D|------0---------------------------0-2---8b9----4-3---2-1---0--|
A|----2---4p0--------5--5-4--4------0-2------------------------4|
E|0-3--------3p0-3-0-----------3--3-----------------------------|
Tap to rate this tab
 
# A B C D E F G H I J K L M N O P Q R S T U V W X Y Z