Song name
# A B C D E F G H I J K L M N O P Q R S T U V W X Y Z

Turbonegro - I Wanna Come tab

Turbonegro - I Wanna Come

Album: Retox
Instrument: Guitar
Tuning: eBGDAE

Tabbed By: Rolf Oslo


Intro

e||--------------------------|
B||--------------------------|
G||-------------9---7--9-----|
D||-------4-----9---7--9-----|
A||-5---5-------7---5--7-----|
E||---7-----0-0--------------| x4
pm  * * * * * *


Verse

e||--------------------------|
B||--------------------------|
G||-------------9---7--9-----|
D||-------4-----9---7--9-----|
A||-5---5-------7---5--7-----|
E||---7-----0-0--------------| x2
pm  * * * * * *

e||-----------------------|-------------------------|
B||-----------------------|----------------8-10-8---|
G||-9--7--5----4---7--7-7-|----9---7--9-------------|
D||-9--7--5----4---7--7-7-|----9---7--9-------------|
A||-7--5--3----2---5--5-5-|-2--7---5--7-------------|
E||-----------------------|-0-----------------------|

e||--------------------------|
B||--------------------------|
G||-------------9---7--9-----|
D||-------4-----9---7--9-----|
A||-5---5-------7---5--7-----|
E||---7-----0-0--------------| x2
pm  * * * * * *

e||------------------------|---------------|
B||------------------------|---------------|
G||-9--7--5----4-----------|----9---7--9---|
D||-9--7--5----4---4b(6)-0-|----9---7--9---|
A||-7--5--3----2-----------|-2--7---5--7---|
E||------------------------|-0-------------|


Chorus

e||----------------------------------|
B||----------------------------------|
G||-9-------7-------5-------7--9-9---|
D||-9---9---7---7---5---5---7--9-9---|
A||-7---9---5---7---3---5---5--7-7---|
E||-----7-------5-------3------------| x2

e||-------------------------|----------------------|
B||-------------------------|----------------------|
G||-7--7--5--5--9--9--9--9--|-7--7--5--5--9--------|
D||-7--7--5--5--9--9--9--9--|-7--7--5--5--9--------|
A||-5--5--3--3--7--7--7--7--|-5--5--3--3--7--------|
E||-------------------------|-------------0--------|



e||--------------------------|
B||--------------------------|
G||-------------9---7--9-----|
D||-------4-----9---7--9-----|
A||-5---5-------7---5--7-----|
E||---7-----0-0--------------| x4
pm  * * * * * *


Verse

e||--------------------------|
B||--------------------------|
G||-------------9---11-12----|
D||-------4-----9---11-12----|
A||-5---5-------7---9--10----|
E||---7-----0-0--------------| x2
pm  * * * * * *

e||------------------------|----------------|
B||------------------------|----------------|
G||-9--7--5----4-----------|----9---11-12---|
D||-9--7--5----4---4b(6)-0-|----9---11-12---|
A||-7--5--3----2-----------|-2--7---9--10---|
E||------------------------|-0--------------|

e||--------------------------|
B||--------------------------|
G||-------------9---11-12----|
D||-------4-----9---11-12----|
A||-5---5-------7---9--10----|
E||---7-----0-0--------------| x2
pm  * * * * * *

e||------------------------|---------------|
B||------------------------|---------------|
G||-9--7--5----4-----------|----9---7--9---|
D||-9--7--5----4---4b(6)-0-|----9---7--9---|
A||-7--5--3----2-----------|-2--7---5--7---|
E||------------------------|-0-------------|


Chorus

e||----------------------------------|
B||----------------------------------|
G||-9-------7-------5-------7--9-9---|
D||-9---9---7---7---5---5---7--9-9---|
A||-7---9---5---7---3---5---5--7-7---|
E||-----7-------5-------3------------| x4

e||-------------------------|-------------------------|
B||-------------------------|-------------------------|
G||-7--7--5--5--9--9--9--9--|-7--7--5--5--2--2--2--2--|
D||-7--7--5--5--9--9--9--9--|-7--7--5--5--2--2--2--2--|
A||-5--5--3--3--7--7--7--7--|-5--5--3--3--0--0--0--0--|
E||-------------------------|-------------------------|

e||-------------------------|-------------------------|
B||-------------------------|-------------------------|
G||-7--7--5--5--9--9--9--9--|-7--7--5--5--9--9--9--9--|
D||-7--7--5--5--9--9--9--9--|-7--7--5--5--9--9--9--9--|
A||-5--5--3--3--7--7--7--7--|-5--5--3--3--7--7--7--7--|
E||-------------------------|-------------------------|

e||------------------------|
B||------------------------|
G||-7--7--5-5-5-5-5-5-9----|
D||-7--7--5-5-5-5-5-5-9----|
A||-5--5--3-3-3-3-3-3-7----|
E||-------------------0----|
Tap to rate this tab
 
# A B C D E F G H I J K L M N O P Q R S T U V W X Y Z