Song name
# A B C D E F G H I J K L M N O P Q R S T U V W X Y Z

Turbonegro - Just Flesh tab

Artist:Turbonegro
Song:  Just Flesh
Album: Ass Cobra

Sorry i don't have those little lead fills
But it should be pretty close.

  Intro/Verse:
   
e|--------------------------------------------------|
B|--------------------------------------------------|
G|-----------10-10-10-10----------------------------|
D|--7-7-7-7--10-10-10-10--12-12-12-12--14-14-14-14--|
A|--7-7-7-7---8--8--8--8--12-12-12-12--14-14-14-14--|
E|--5-5-5-5---8--8--8--8--10-10-10-10--12-12-12-12--|
     
 
 
  Pre-Chorus:
   
e|--------------------------------------------------|
B|--------------------------------------------------|
G|--10-10-10-10--9-9-9-9--10-10-10-10--12-12-12-12--|
D|--10-10-10-10--9-9-9-9--10-10-10-10--12-12-12-12--|
A|---8--8--8--8--7-7-7-7---8--8--8--8--10-10-10-10--|
E|---8--8--8--8--7-7-7-7---8--8--8--8--10-10-10-10--|




    Chorus: 
   
e|------------------------------------------|
B|------------------------------------------|
G|----------9-/-10-10-10--9-/-12-12-12------|
D|---7-7-7--9-/-10-10-10--9-/-12-12-12--12--|
A|---7-7-7--7-/--8--8--8--7-/-10-10-10--12--|
E|---5-5-5--7-/--8--8--8--7-/-10-10-10--10--|
Tap to rate this tab
 
# A B C D E F G H I J K L M N O P Q R S T U V W X Y Z