Song name
# A B C D E F G H I J K L M N O P Q R S T U V W X Y Z

Turbonegro - All My Friends Are Dead tab

-------------------------------------------------------------------------------
    All My Friends Are Dead (Solo) - Turbonegro
-------------------------------------------------------------------------------
Tabbed by: Lars Ch. Angell
E-mail: lars_angell@hotmail.com

Tuning: Standard

e|--12-----12------12------12-----------------------------------------------------|
B|--15b17--15b17---15b17------15-12-15p12----12-----------------------------------|
G|------------------------------------------14----14-12-14p12----12~--------------|
D|-------------------------------------------------------------14------14~~-------|
A|--------------------------------------------------------------------------------|
E|--------------------------------------------------------------------------------|

e|-15b17b15~----12-15p12-15p12----12-15p12-15p12----12-15p14p12-14p12-------------|
B|------------15-----------------15-----------------15--------------------15------|
G|--------------------------------------------------------------------------------|
D|--------------------------------------------------------------------------------|
A|--------------------------------------------------------------------------------|
E|--------------------------------------------------------------------------------|

e|-12------------------------15---------------------------------------------------|
B|----15p14-15p14p12-15b17-----15b17~--12-----------------------------------------|
G|---------------------------------------14b16b14-12-------9h11-11--9h11-11-------|
D|----------------------------------------------------14~-------------------------|
A|--------------------------------------------------------------------------------|
E|--------------------------------------------------------------------------------|

e|--------------------------------------------------------------------------------|
B|--------------------------------------------------------------------------------|
G|-9h11-11--9h11-11--9h11-11-11~--11h14-14--11h14-14--11h14-14--11h14-14----------|
D|--------------------------------------------------------------------------------|
A|--------------------------------------------------------------------------------|
E|--------------------------------------------------------------------------------|

e|--------------------------------------------------------------------------------|
B|----------------12----15-12-----------------------------------------------------|
G|-11h14-14-14~--14b16----14b16~~--14p12----12~-----------------------------------|
D|-----------------------------------------14------14-12--------------------------|
A|--------------------------------------------------------14-12-------------------|
E|---------------------------------------------------------------15---------------|

e|--------------------------------------------------------------------------------|
B|-------------------------------------------12h15p12-----12h15-15b17~~~----------|
G|-----------------------12h14p12----12h14------------14--------------------------|
D|----12h14p12----12h14----------14-----------------------------------------------|
A|-14-----------14----------------------------------------------------------------|
E|--------------------------------------------------------------------------------|



************************************

| /   slide up
| \   slide down
| h   hammer-on
| p   pull-off
| ~   vibrato
| +   harmonic
| x   Mute note
| b   Bend
| pb  Pre-bend
| br  Bend release
| pbr Pre-bend release
| brb Bend release bend

************************************
Tap to rate this tab
 
# A B C D E F G H I J K L M N O P Q R S T U V W X Y Z