Song name
# A B C D E F G H I J K L M N O P Q R S T U V W X Y Z

Turbonegro - Im In Love With The Destructive Girls tab

Probably one of my favourites. Could never understand or find the lyrics sadly :(
This is my first try at a tab. I used the only live video of this and listening by ear 
to get it down.

Verse:
e||----------------------------------------------||
b||----------------------------------------------||
g||----------------------------------------------||
d||9--9--PM---9-9-9-9-9-9-9-9-9-9-9-9-9-9-9-9----||
a||9--9-------9-9-9-9-9-9-9-9-9-9-9-9-9-9-9-9----||
E||7--7-------7-7-7-7-7-7-7-7-7-7-7-7-7-7-7-7----||

e||----------------------------------------------||
b||----------------------------------------------||
g||----------------------------------------------||
d||--12--12--12--12--12--12--12--12--7--7--------||
a||--12--12--12--12--12--12--12--12--7--7--------||
E||--10--10--10--10--10--10--10--10--5--5--------||

e||----------------------------------------------||
b||----------------------------------------------||
g||----------------------------------------------||
d||9--9--PM---9-9-9-9-9-9-9-9-9-9-9-9-9-9-9-9----||
a||9--9-------9-9-9-9-9-9-9-9-9-9-9-9-9-9-9-9----||
E||7--7-------7-7-7-7-7-7-7-7-7-7-7-7-7-7-7-7----||

e||----------------------------------------------||
b||----------------------------------------------||
g||----------------------------------------------||
d||--12--12--12--12--12--12--12--12--14--14------||
a||--12--12--12--12--12--12--12--12--14--14------||
E||--10--10--10--10--10--10--10--10--12--12------||
Repeat


Chorus
e||-----------------------------------------------------------||   X4
b||-----------------------------------------------------------||
g||-------------------12--12--12--12--12--12--12--12--12------||
d||--14--9--9--9--9---12--12--12--12--12--12--12--12--12------||
a||--14--9--9--9--9---10--10--10--10--10--10--10--10--10------||
E||--12--7--7--7--7-------------------------------------------||

e||-----------------------------------------------------------||
b||-----------------------------------------------------------||
g||--12--12--12--12--11--11--11--11--9--9--9--9--7--7--7--7---||
d||--12--12--12--12--11--11--11--11--9--9--9--9--7--7--7--7---||
a||--10--10--10--10--9---9---9---9---7--7--7--7--5--5--5--5---||
E||-----------------------------------------------------------||
Back into verse

Bridge Solo

e||-----------------------------------||
b||-----------------------------------||
g||--9 X6------12  X6------14  X12----||
d||-----------------------------------||
a||-----------------------------------||
E||-----------------------------------||
Tap to rate this tab
# A B C D E F G H I J K L M N O P Q R S T U V W X Y Z