Song name
# A B C D E F G H I J K L M N O P Q R S T U V W X Y Z

Turbonegro - Sell Your Body To The Night tab

-------------------------------------------------------------------------------
                 Sell Your Body (To The Night) - Turbonegro
-------------------------------------------------------------------------------
Tabbed by: logspran


Tuning: Regular

Main Riff:                                                            x4
e|---------------------------------------------------------------------------|
B|---------------------------------------------------------------------------|
G|---------------------------------------7/9--------------------7------------|
D|------------------------5----------7----------------------5------7b-7--5---|
A|-----------------5h7---------5h7-------5/7---------5h7---------------------|
E|------5\---0--0------0-----0-----0-----------5--5-------0------------------|
  Verse:  (You'll have to play the actuall rythm. too long to type out)
e|---------------------------------------------------------------------------|
B|---------------------------------------------------------------------------|
G|---------------------------------------------------------------------------|
D|--9---------5-------------9------5------7----------------------------------|
A|--7---------3------7------7------3------5----------------------------------|
E|-------------------5-------------------------------------------------------|
  Afterverse: ("out on the dance floor working up a sweat...)  Guitar #1 x3
e|---------------------------------------------------------------------------|
B|---------------------------------------------------------------------------|
G|---------------------------------------------------------------------------|
D|--2-2-2-2------------------------------------------------------------------|
A|--2-2-2-2--5-5-5-5--7-7-7-7--10-10-10-10-----------------------------------|
E|--0-0-0-0--3-3-3-3--5-5-5-5--8--8--8--8------------------------------------|
  Afterverse: Guitar #2 x6
e|---------------------------------------------------------------------------|
B|---------------------------------------------------------------------------|
G|--------------12--------------14-------------------------------------------|
D|--14--12--14--12--14--12--14--14-------------------------------------------|
A|--14--12--14------14--12--14-----------------------------------------------|
E|---------------------------------------------------------------------------|
  Chorus:  x2  (After chorus go back to main riff and then play verse again)
e|---------------------------------------------------------------------------|
B|---------------------------------------------------------------------------|
G|----------------12-12-----------------14-12--------------------------------|
D|--14-14--12h14--12-12---14-14--12h14--14-12--14-12-14-12-------------------|
A|--14-14--12h14----------14-14--12h14---------14-12-14-12-------------------|
E|---------------------------------------------------------------------------|
  Bridge:     (You'll have to play the actuall rythm. too long to type out)
e|---------------------------------------------------------------------------|
B|--9-----12----11---14------------------------------------------------------|
G|---------------------------------------------------------------------------|
D|--7-----10----9----12------------------------------------------------------|
A|---------------------------------------------------------------------------|
E|---------------------------------------------------------------------------|
  Solo:                            x7
e|-----------------------------------|----15b--15b--15b--12-15-12-------12---|  |
B|--12h15p12--------------12h15p12---|---------------------------------------|  |
G|-----------14p12--12h14------------|------------------------------14b------|  |
D|-----------------------------------|---------------------------------------|  |
A|-----------------------------------|---------------------------------------|  |
E|-----------------------------------|----------------------------------------- |

e|-------------12------------------------------------------------------------|
B|--15p12----------15p12-----------------------------------------------------|
G|---------14b-------------14-12-14-12-14-12-14-12---------------------------|
D|-------------------------------------------------14-12-14-14-14p12---------|
A|-------------------------------------------------------------------14-13---|
E|---------------------------------------------------------------------------|


e|---------------------------------------------------------------------------|
B|-----------------------------------------------------------------------15--|
G|-------------------------------------------------------12----12--14/16-----|
D|-----------------------------------12----12h14p12------12-14-12------------|
A|-10----10----10--12p10-12p10-12/14----14-----------14----------------------|
E|----12----12---------------------------------------------------------------|

e|----------------------------------18p17p15----------18p17p15---------------|
B|--17b--17b--17b--17b\--15----15------------18p17p15-----------18p17p15-----|
G|--------------------------16-----------------------------------------------|
D|---------------------------------------------------------------------------|
A|---------------------------------------------------------------------------|
E|---------------------------------------------------------------------------|

e|---------15--15-----15-----15-----------------------------12------12-------|
B|--15h17--15--17p15--17p15--17p15--15p12-----------------------15b----------|
G|----------------------------------------14p12--14p12---14b------------14b--|
D|---------------------------------------------------------------------------|
A|---------------------------------------------------------------------------|
E|---------------------------------------------------------------------------|

e|--12-----12------------12--------------------------------------------------|
B|-----15b---------------12--12h15p12-----12h15p12-----12h15p12--------------|
G|-------------14b--14b----------------14-----------14-----------14----------|
D|---------------------------------------------------------------------------|
A|---------------------------------------------------------------------------|
E|---------------------------------------------------------------------------|
  Pre chorus: ("You've go nowhere to go, nowhere to go...")
e|--------------------------------------15--15b------------------------------|
B|------------------------10b------------------------------------------------|
G|------------9b-------------------------------------------------------------|
D|---5-5-5---------5-5-5--------5-5-5----------------------------------------|
A|---3-3-3---------3-3-3--------3-3-3----------------------------------------|
E|---3-3-3---------3-3-3--------3-3-3----------------------------------------|

Go Back To Chorus and Play A Few More Times. And that's It. Awesome song. You might not
that the solo is right at first because you'll probably be playing it slow, but the solo
100% accurate. If you can play it as fast as Euroboy (The guitarist of Turbonegro) It'll 
exactly like the real solo. Good Luck!

| /  slide up
| \  slide down
| h  hammer-on
| p  pull-off
| ~  vibrato
| +  harmonic
| x  Mute note
| b\ Bend Down
| b  Bend
===============================================================================
Tap to rate this tab
 
# A B C D E F G H I J K L M N O P Q R S T U V W X Y Z