Song name
# A B C D E F G H I J K L M N O P Q R S T U V W X Y Z

Turbonegro - Sailor Man tab

Help us improve GuitareTab! Take a short survey!
Song: Sailor Man
By: Turbonegro
---------------------------------------------------
  [ Intro : 2x guitar only ] 
 
   E                      C        D         
e|------------------------------------------------------------|
B|------------------------------------------------------------|
G|-9-9-9-9-9-9-9-9-9-9--5-5-5-5--7-7-7-7----------------------|
D|-9-9-7-7-9-9-9-7-7-9--5-5-3-5--7-7-5-7----------------------|
A|-7-7-7-7-7-7-7-7-7-7--3-3-3-3--5-5-5-5----------------------|
E|------------------------------------------------------------|

  [ Verse : 4x ] 
  
 
   E                      C        D         
e|------------------------------------------------------------|
B|------------------------------------------------------------|
G|-9-9-9-9-9-9-9-9-9-9--5-5-5-5--7-7-7-7----------------------|
D|-9-9-7-7-9-9-9-7-7-9--5-5-3-5--7-7-5-7----------------------|
A|-7-7-7-7-7-7-7-7-7-7--3-3-3-3--5-5-5-5----------------------|
E|------------------------------------------------------------|

  [ Pre-Chorus : 1 cycle ]


   B       A       E                 B       A       G   F     E 
e|------------------------------------------------------------------|
B|------------------------------------------------------------------|
G|-4-4-4-4-2-2-2-2-------------------4-4-4-4-2-2-2-2----------------|
D|-4-4-4-4-2-2-2-2-2-2-2-2-2-2-2-2---4-4-4-4-2-2-2-2-5-5-3-3-3-2----|
A|-2-2-2-2-0-0-0-0-2-2-2-2-2-2-2-2---2-2-2-2-0-0-0-0-5-5-3-3-3-2----|
E|-----------------0-0-0-0-0-0-0-0-------------------3-3-1-1-1-0----|

  [ Chorus ]
  
  
    B C        E         G   F     E   
    3x                   tag for 4th
e|--------------------|----------------------| 
B|--------------------|----------------------|
G|--4-5-5-5-5---------|----------------------|
D|--4-5-5-5-5-2-2-2-2-|--5-5-3-3-3-2-2-2-2-2-|
A|--2-3-3-3-3-2-2-2-2-|--5-5-3-3-3-2-2-2-2-2-|
E|------------0-0-0-0-|--3-3-1-1-1-0-0-0-0-0-|
Related for Sailor Man tab