Song name
# A B C D E F G H I J K L M N O P Q R S T U V W X Y Z

Turbonegro - Selfdestructo Bust tab

Standard tuning

Figure A
|-----------------------------------------------------------------|
|-----------------------------------------------------------------|
|-----------------------------------------------------------------|
|-----------------------------------------------------------------|
|-12-12-12-12-12-12-12-12-10-10-10-10-10-10-10-10-8-8-8-8-8-8-8-8-|
|-10-10-10-10-10-10-10-10--8--8--8--8--8--8--8--8-6-6-6-6-6-6-6-6-|

|-----------------------------------------------------------------|
|-----------------------------------------------------------------|
|-----------------------------------------------------------------|
|-----------------------------------------------------------------|
|-8-8-8-8-8-8-8-8-10-10-10-10-10-10-10-10-12-12-12-12-12-12-12-12-|
|-6-6-6-6-6-6-6-6--8--8--8--8--8--8--8--8-10-10-10-10-10-10-10-10-|

Repeat Figure A

Figure B
|-------|
|-------|
|-------|
|-10----|
|--8-10-|
|-----8-|

Figure C
|--------------------------------------------------------------|
|--------------------------------------------------------------|
|--------------------------------------------------------------|
|--------------------------------------------------------------|
|-12-12-12-12-12-12-12-12-5-5-5-5-5-5-5-5-8-8-8-8-8-8-8-8-10-7-|
|-10-10-10-10-10-10-10-10-3-3-3-3-3-3-3-3-6-6-6-6-6-6-6-6--8-5-|

Repeat Figure C

Repeat Figure A

Repeat Figure B

Repeat Figure C

Repeat Figure A

Repeat Figure B

Figure D
|----------------|
|----------------|
|----------------|
|----------------|
|-5---8--10---12-|
|-3---6---8---10-|

Repeat Figure D three more times

Figure E
|--------------------------|
|--------------------------|
|--------------------------|
|--------------------------|
|-666666666666666666666666-|
|-444444444444444444444444-|

Repeat Figure B

Repeat Figure C

Repeat Figure C

Repeat Figure A

Repeat Figure A

Repeat the last part of Figure A

Repeat the last part of Figure A

Repeat Figure D (Each power chord is played 8 times)
Tap to rate this tab
 
# A B C D E F G H I J K L M N O P Q R S T U V W X Y Z