Song name
# A B C D E F G H I J K L M N O P Q R S T U V W X Y Z

Turbonegro - Train Of Flesh tab

-------------------------------------------------------------------------------
			  Train of Flesh - Turbonegro
-------------------------------------------------------------------------------

Song: Train Of Flesh
Artist: Turbonegro
Album: Scandinavian Leather
Guitarists: Euroboy, Pol Pot Pamparius, Rune Rebellion
Tabber: Duncan Usher Iksose3@hotmail.com

Intro/Verse
e|---------------------------------------------------------------------------|
B|---------------------------------------------------------------------------|
G|---------------8-----------------------------------------------------------|
D|-5-5-5--8-8-8--8-1010101010101010------------------------------------------|
A|-5-5-5--8-8-8--6-1010101010101010------------------------------------------|
E|-3-3-3--6-6-6----8-8-8-8-8-8-8-8-------------------------------------------|

Chorus

Rythm
e|---------------------------------------------------------------------------|
B|---------------------------------------------------------------------------|
G|--7-7777-5-7-7777-5-7-7777-5-7-10-12-10------------------------------------|
D|--7-7777-5-7-7777-5-7-7777-5-7-10-12-10------------------------------------|
A|--5-5555-3-5-5555-3-5-5555-3-5-8--10-8-------------------------------------|
E|---------------------------------------------------------------------------|

e|---------------------------------------------------------------------------|
B|---------------------------------------------------------------------------|
G|--7-7777-5-7-7777-5--8-88888--10-1010101010--------------------------------|
D|--7-7777-5-7-7777-5--8-88888--10-1010101010--------------------------------|
A|--5-5555-3-5-5555-3--6-66666--8--8-8-8-8-8---------------------------------|
E|---------------------------------------------------------------------------|

Lead
e|--17b1717171717-17b1717171717-17b17171717--17b1717171717-------------------|
B|---------------------------------------------------------------------------|
G|---------------------------------------------------------------------------|
D|---------------------------------------------------------------------------|
A|---------------------------------------------------------------------------|
E|---------------------------------------------------------------------------|

e|--17b1717171717-17b1717171717-18b18181818--5b--------3b--------------------|
B|---------------------------------------------------------------------------|
G|---------------------------------------------------------------------------|
D|---------------------------------------------------------------------------|
A|---------------------------------------------------------------------------|
E|---------------------------------------------------------------------------|


Outro
e|----10--10--8--8---6---6---5---5---3---3---1---1---3---3---3---3-----------|
B|--11--11--10-10--8---8---6---6---3---3---1---1---3---3---3---3-------------|
G|---------------------------------------------------------------------------|
D|---------------------------------------------------------------------------|
A|---------------------------------------------------------------------------|
E|---------------------------------------------------------------------------|

e|----10--10--8--8---6---6---5---5-------------------------------------------|
B|--11--11--10-10--8---8---6---6----5-6-6-5--3-3-4-3-4-----------------------|
G|----------------------------------5-5-5-5--3-3-3-3-3-----------------------|
D|---------------------------------------------------------------------------|
A|---------------------------------------------------------------------------|
E|---------------------------------------------------------------------------|

e|-------------------------------------|-|-----------------------------------|
B|-------------------------------------|-|---5-665--3-3-434------------------|
G|-------------------------------------|-|-/-5-555--3-3-333------------------|
D|-5555555555555555-3333-555555555555--|-|-/-5-555--3-3-333------------------|
A|-5555555555555555-3333-555555555555--|-|-/-3-333--1-1-111------------------|
E|-3333333333333333-1111-333333333333--|-|-----------------------------------|
   xxxxxxxxxxxxxxxx xxxx xxxxxxxxxxxx


The palm mutes on the outro are played only a few times I think, before it all bursts
then you release the mutes. Amazing song eh? Second of my Turbonegro tabs, gonnae get a
more in. Going to try and tab the intro which is what is at the end of this song so 
make more sense and all that. Any questions or comments dont hesitate to tell.

| /  slide up
| \  slide down
| h  hammer-on
| p  pull-off
| ~  vibrato
| +  harmonic
| x  Mute note
=============================================================================
Tap to rate this tab
# A B C D E F G H I J K L M N O P Q R S T U V W X Y Z