Song name
# A B C D E F G H I J K L M N O P Q R S T U V W X Y Z

Turbonegro - All My Freinds Are Dead tab

Help us improve GuitareTab! Take a short survey!
This is just my guess of the song, I hope I'm right for the most part. It's not
completely done yet though, I still have more to work on for this song. You should
be able to figure out the strumming and number of times each is played if you know
the song.

Intro:

------------------------|
------------------------|
---9-9-10----7--10--9---|
---9-9-10----7--10--9---|
---7-7-8-----5--8---7---|
------------------------|

Verse:

---------------------------------|
---7-7-9---7-7-9---7-7-5---8-9---|
---7-7-9---7-7-9---7-7-5-7-8-9---|
---5-5-7---5-5-7---5-5-3-7-6-7---|
-------------------------5-------|

Chorus:

----------------------------------|
----------------------------------|
---7-5-7-5-7---7-5-7-5-7--8-8-7---|
---7-5-7-5-7---7-5-7-5-7--8-8-7---|
---5-3-5-3-5---5-3-5-3-5--6-6-5---|
----------------------------------|

Verse: Played same as above, 2nd one through is palm muted half way, then    back to normal.

Chorus: The same as above.

Solo: Sorry don't know yet.

Chorus: Same as above.

Outro: Played same as intro.
Related for All My Freinds Are Dead tab