Song name
# A B C D E F G H I J K L M N O P Q R S T U V W X Y Z

Turbonegro - Bad Mongo tab

Band: Turbonegro
Song: Bad Mongo
Tuning: Standard
Tabbed By: Aleksi (AleksiH@Muusikko.net)

Since I couldn't find a tab for this song, I decided to make one.
Here it is:

Intro

|-----------------------------------------------------------|
|-----------------------------------------------------------|
|-----------------------------------------------------------| x4
|-9-9-9-7--7-7-5-5-5-4--4-4------9--------------------------|
|----------------------------7-----9--9-9-10-10-10-12-12-12-|
|-----------------------------------------------------------|

Verse (Palm Muted, except on the 8th time)

|---------------------|
|---------------------|
|-9999-4444-5555-7777-|  x8
|-9999-4444-5555-7777-|
|-7777-2222-3333-5555-|
|---------------------|

Bridge

|-------------------------|
|-------------------------|
|-4--4--4-2-4-2--5-5-7--5-| x4
|-4--4--4-2-4-2--5-5-7--5-|
|-2--2--2-2-2-2--3-3-5--3-|
|-------------------------|



1st Chorus = Same as Intro



2nd Chorus

|-----------------------|
|-----------------------|
|--------4444-5555-7777-|  x7
|-2-2-2--4444-5555-7777-|
|-2-2-2--2222-3333-5555-|
|-0-0-0-----------------|

Ending

|----------------------------------|
|----------------------------------|
|-9999-4444-5555----7--------------|
|-9999-4444-5555-5--7--2~~---2-2-2-|
|-7777-2222-3333-5--5--2~~---2-2-2-|
|----------------3-----0~~---0-0-0-|
Tap to rate this tab
# A B C D E F G H I J K L M N O P Q R S T U V W X Y Z