Song name
# A B C D E F G H I J K L M N O P Q R S T U V W X Y Z

Turbonegro - City Of Satan tab

tabed By: Robert Sandaunet
Mail: r-o-b-e-r-t@hotmail.com

city of satan:


|-------------------|
|-------------------|
|-------------------|
|-------------------|
|---5h7~---5h7~-----|
|-------------------|


|-----------------------------------------------------|
|-----------------------------------------------------|
|-----------------------------------------------------|
|---7--9----12--7--9----------------------------------| Repeat 6 times
|---7--9----12--7--9----------------------------------|
|---5--7----10--5--7----------------------------------|


|-----------------------------------------------------|
|-----------------------------------------------------|
|-----------------------------------------------------|
|-------7---------------------------------------------|
|-------7-----------9--10--------10-10-10-10----------|
|--9/1--5--------5--7--8---------8--8--8--8-----------|

|-----------------------------------|
|-----------------------------------|
|-----------------------------------|
|---7--9---------12--7--9-----------| Repeat 2 times
|---7--9---------12--7--9-----------|
|---5--7-7-7-7-7-10--5--7-7-7-7-7---|
       pm-------|        pm------|


--------------------------------------|
|---------------|                     |
|---------------|                     |
|---------------|                     |
|--7--9---------|                     |
|--7--9---------|                     |
|--5--7---------|                     |
                                      |
|----------------------------|        |------Repeat 2 times
|----------------------------|        |
|----------------------------|        |
|---7--9----12--7--9---------|        |        
|---7--9----12--7--9---------|        |
|---5--7----10--5--7---------|        |
--------------------------------------|

|-----------------------------------------------------|
|-----------------------------------------------------|
|-----------------------------------------------------|
|-------7---------------------------------------------|
|-------7-----------9--10--------10-10-10-10----------|
|--9/1--5--------5--7--8---------8--8--8--8-----------|

|-----------------------------------|
|-----------------------------------|
|-----------------------------------|
|---7--9---------12--7--9-----------| Repeat 2 times
|---7--9---------12--7--9-----------|
|---5--7-7-7-7-7-10--5--7-7-7-7-7---|
       pm-------|        pm------|

rest coming soon, It's just the solo and a acoustic part who remains!
Tap to rate this tab
 
# A B C D E F G H I J K L M N O P Q R S T U V W X Y Z