Song name
# A B C D E F G H I J K L M N O P Q R S T U V W X Y Z

Turbonegro - Turbonegro Must Be Destroyed tab

Help us improve GuitareTab! Take a short survey!
TurboNegro
TurboNegro Must Be Destroyed
by Chad Martin

Intro:
/-------------------------------------------------------------------|--|
/-------------------------------------------------------------------|--|
/-------------------------------------------------------------------|--|
/-------------------------------------------------------------------|--|
/--9-9-9-9-9-9-9-9-9-9-9-9-9--7--5-5-5-5-5-5-5-5-5-5-5-5-5----------|--|
/--7-7-7-7-7-7-7-7-7-7-7-7-7--5--3-3-3-3-3-3-3-3-3-3-3-3-3----------|--|

/----------------------------------------------------------------------|
/----------------------------------------------------------------------|
/----------------------------------------------------------------------|
/----------------------------------------------------------------------|
/--7--9-9-9-9-9-9-9-9-9-9-9-9-9--7--5-5-5-5-5-5-5-5-5-5-5-5-5----------|
/--5--7-7-7-7-7-7-7-7-7-7-7-7-7--5--3-3-3-3-3-3-3-3-3-3-3-3-3----------|

/----------------------------------------------------------------------|
/----------------------------------------------------------------------|
/-----------------------------------16---------------------------------|
/--------12h14b-14--------12h14b-14------------------------------------|
/--12h14------------12h14----------------------------------------------|
/----------------------------------------------------------------------|

Verse:
/----------------------------------------------------------------------|
/----------------------------------------------------------------------|
/----------------------------------------------------------------------|
/----------------------------------------------------------------------|
/-10-5-5-5-5-5--7-5-5-5-5--10-10--9-9-9-9-9-9-9-9-9-9-9-9-9------------|
/--8-7-7-7-7-7--5-3-3-3-3---8-8---7-7-7-7-7-7-7-7-7-7-7-7-7------------| x 3

Pre-Chours
/----------------------------------------------------------------|------|
/----------------------------------------------------------------|------|
/----------------------------------------------------------------|------|
/----------------------------------------------------------------|------|
/--5-5-5-5-5-5-5-5-5-5-5-5-5-xxx-7-7-7-7-7-7-7-7-7-7-7-7-7-xxx---|------|
/--3-3-3-3-3-3-3-3-3-3-3-3-3-xxx-5-5-5-5-5-5-5-5-5-5-5-5-5-xxx---|------|

/----------------------------------------------------------------|------|
/----------------------------------------------------------------|------|
/----------------------------------------------------------------|------|
/----------------------------------------------------------------|------|
/--9-9-9-9-9-9-9-9-9-9-9-9-9--7--5-5-5-5-5-5-5-5-5-5-5-5-5-xxx---|------|
/--7-7-7-7-7-7-7-7-7-7-7-7-7--5--3-3-3-3-3-3-3-3-3-3-3-3-3-xxx---|------|

/-----------------------------------------------------------------------|
/-----------------------------------------------------------------------|
/-----------------------------------------------------------------------|
/-----------------------------------------------------------------------|
/--7-7-7-7-7-7-7-7-7-7-7-7-7-xxx-7-7-7-7-7-7-7-7-7-7-7-7-7-xxx----------|
/--5-5-5-5-5-5-5-5-5-5-5-5-5-xxx-5-5-5-5-5-5-5-5-5-5-5-5-5-xxx----------|

Chorus/Outro:
/-----------------------------------------------------------------------|
/-----------------------------------------------------------------------|
/-----------------------------------------------------------------------|
/-----------------------------------------------------------------------|
/--9--9-9-9-9-10-10-9-xxx-7-xxx-----------------------------------------|
/--7--7-7-7-7--8-8--7-xxx-5-xxx-----------------------------------------|
Related for Turbonegro Must Be Destroyed tab