Guitaretab - guitar tabs
Song name
# A B C D E F G H I J K L M N O P Q R S T U V W X Y Z

Turbonegro - Final Warning tab

Song: Final Warning
Artist: Turbonegro
Album: Party Animals
Guitarists: Euroboy, Rune Rebellion, Pal pot
Tabber: Duncan Usher, iksose3@Hotmail.com

Intro
E|-------------------||
B|-------------------||
G|--4------6~--------||
D|--4------6~--------||
A|--2------4~--------||
E|-------------------||


Verse
e|----------------------------------------|----|---------------------------|
B|----------------------------------------|----|---------------------------|
G|---6-6-6-6-6-6-6-6---4-4-4-4---7-7-7-7--|----|---6-----------------------|
D|---6-6-6-6-6-6-6-6---4-4-4-4---7-7-7-7--|-x3-|---6-----------------------|
A|---4-4-4-4-4-4-4-4---2-2-2-2---5-5-5-5--|----|---4-----------------------|
E|----------------------------------------|----|---------------------------|
[ Tab from: http://www.guitaretab.com/t/turbonegro/70915.html ]
Chorus
e|--------------------------------------|--|----------------|
B|--------------------------------------|--|----------------|
G|-----------------7--6666666666666-----|--|----------------|
D|--7777777777777--5--6666666666666--4--|x4|--7777777777777-|
A|--7777777777777--5--4444444444444--4--|--|--7777777777777-|
E|--5555555555555--------------------2--|--|--5555555555555-|


Verse x 2

Chorus

Outro (The chords are strummed a lot here, I just didnít show it for space)
e|--------------|----------------|--------------|--|-------|
B|--------------|----------------|--------------|--|-------|
G|--4/6---------|--4/6---4/6-----|--4/6---------|--|--7-6--|
D|--4/6--4---7--|--4/6---4/6--4--|--4/6--4---7--|x8|--7-6--|
A|--2/4--4---7--|--2/4---2/4--4--|--2/4--4---7--|--|--5-4--|
E|-------2---5--|-------------2--|-------2---5--|--|-------|


The end song for Party Animals, and what an ending to an amazing album, Turbonegro kick 
ass man. Any comments or questions, feel free to email me at iksose3@hotmail.com, Cheers!
Related for Final Warning tab