Song name
# A B C D E F G H I J K L M N O P Q R S T U V W X Y Z

Turbonegro - Blow Me Like The Wind tab

Song: Blow Me Like The Wind
By: Turbonegro
Transcribed: Death Wolf	
Jarlroe@hotmail.com


Intro x2
|-----------------------------------------------|
|-----------------------------------------------|
|--------9-9-9-9-9-9-9-------------9-----9------|
|9-9-9-9-7-7-7-7-7-7-7-7-9-9-9-9-9-7-9-9-7-9-9--|
|7-7-7-7-7-7-7-7-7-7-7-7-9-9-9-9-9-7-9-9-7-9-9--|
|7-7-7-7---------------5-7-7-7-7-7---7-7---7-7--|

|16-14-------------------16-14-----------------------------------------|
|------16-14----14-------------16-14----14-------14-------14-------14--|
|------------16----13-16-------------16----13-16----13-16----13-16-----|
|----------------------------------------------------------------------|
|----------------------------------------------------------------------|
|----------------------------------------------------------------------|

|16-14-------------------16-14-----------------------------------------|
|------16-14----14----16-------16-14----14-------14-14b----------------|
|------------16----13----------------16----13-16--------16-13-16-------|
|----------------------------------------------------------------------|
|----------------------------------------------------------------------|
|----------------------------------------------------------------------|

Verse Part 1   x2
|--------------------------------------|
|--------------------------------------|
|--------------------------------------|
|--9-9-9-9--2-2-2-2--5-5-5-5--9-9-9-9--|
|--9-9-9-9--2-2-2-2--5-5-5-5--9-9-9-9--|
|--7-7-7-7--0-0-0-0--3-3-3-3--7-7-7-7--|
Part 2      x1  
|------------7-7--7-7------------------------------------|
|------------7-7--7-7------------------------------------|
|------------7-7--7-7------------------------------------|
|--7-7-7-7--9-9-99-9--2-2-2-2--5-5-5-5--7-7-7-7-7-7-7-7--|
|--7-7-7-7--9-9-99-9--2-2-2-2--5-5-5-5--7-7-7-7-7-7-7-7--|
|--5-5-5-5--7-7-77-7--0-0-0-0--3-3-3-3--5-5-5-5-5-5-5-5--|

Chorus
|-----------------------------------------------|
|-----------------------------------------------|
|--------9-9-9-9-9-9-9-------------9-----9------|
|9-9-9-9-7-7-7-7-7-7-7-7-9-9-9-9-9-7-9-9-7-9-9--|
|7-7-7-7-7-7-7-7-7-7-7-7-9-9-9-9-9-7-9-9-7-9-9--|
|7-7-7-7---------------5-7-7-7-7-7---7-7---7-7--|

Verse Part 1    x2
|--------------------------------------|
|--------------------------------------|
|--------------------------------------|
|--9-9-9-9--2-2-2-2--5-5-5-5--9-9-9-9--|
|--9-9-9-9--2-2-2-2--5-5-5-5--9-9-9-9--|
|--7-7-7-7--0-0-0-0--3-3-3-3--7-7-7-7--|
Part 2      x1
|--------------------------------------------------------|
|--------------------------------------------------------|
|--------------------------------------------------------|
|--7-7-7-7--9-9-99-9--2-2-2-2--5-5-5-5--7-7-7-7-7-7-7-7--|
|--7-7-7-7--9-9-99-9--2-2-2-2--5-5-5-5--7-7-7-7-7-7-7-7--|
|--5-5-5-5--7-7-77-7--0-0-0-0--3-3-3-3--5-5-5-5-5-5-5-5--|

Bridge
|------------------------------------|------------------------|
|--<--------------3X-------------->--|--<------tag-------->---|
|------------------------------------|------------------------|
|--6-6-6-6-6-6-6-6--4-4-4-4-4-4-4-4--|--9-9-9-9--11-11-11-11--|
|--6-6-6-6-6-6-6-6--4-4-4-4-4-4-4-4--|--9-9-9-9--11-11-11-11--|
|--4-4-4-4-4-4-4-4--2-2-2-2-2-2-2-2--|--7-7-7-7---9--9--9--9--|

Chorus
|-----------------------------------------------|
|-----------------------------------------------|
|--------9-9-9-9-9-9-9-------------9-----9------|
|9-9-9-9-7-7-7-7-7-7-7-7-9-9-9-9-9-7-9-9-7-9-9--|
|7-7-7-7-7-7-7-7-7-7-7-7-9-9-9-9-9-7-9-9-7-9-9--|
|7-7-7-7---------------5-7-7-7-7-7---7-7---7-7--|

Outro (Sort of, not sure about this part)
|16-14-------------------16-14-----------------------------------------|
|------16-14----14-------------16-14----14-------14-------14-------14--|
|------------16----13-16-------------16----13-16----13-16----13-16-----|
|----------------------------------------------------------------------|
|----------------------------------------------------------------------|
|----------------------------------------------------------------------|

|16-14-------------------16-14-----------------------------------------|
|------16-14----14----16-------16-14----14-------14-14b----------------|
|------------16----13----------------16----13-16--------16-13-16-------|
|----------------------------------------------------------------------|
|----------------------------------------------------------------------|
|----------------------------------------------------------------------|

This is my first tab so dont go to hard on me:P
Tap to rate this tab
# A B C D E F G H I J K L M N O P Q R S T U V W X Y Z