Song name
# A B C D E F G H I J K L M N O P Q R S T U V W X Y Z

Turbonegro - Humiliaton Street tab

Song: Humiliation Street
By: Turbonegro
Transcribed: Euroboy   (Norway)
---------------------------------------------


 [ Verse ]
 
 
   <------ Play 3X --------->    <-Tag  4th->
    C        D        E                                    
e|-----------------------------|--------------|
B|-----------------------------|--------------|
G|--5-5-5-5--7-7-7-7-----------|--------------|
D|--5-5-5-5--7-7-7-7--2-2-2-2--|--------------|
A|--3-3-3-3--5-5-5-5--2-2-2-2--|-----2--5--0--|
E|--------------------0-0-0-0--|--3-----------|



 [ Chorus ]
    
    D        E
e|--------------------|
B|--------------------|
G|--7-7-7-7-----------|
D|--7-7-7-7--2-2-2-2--|
A|--5-5-5-5--2-2-2-2--|
E|-----------0-0-0-0--|



 [ Outro ]
  (The song seems to alternate between this pattern and one that
  consist of E and maybe B but I'm not sure.)
  
   
    E        D        C
e|-----------------------------|
B|-----------------------------|
G|--9-9-9-9--7-7-7-7--5-5-5-5--|
D|--9-9-9-9--7-7-7-7--5-5-5-5--|
A|--7-7-7-7--5-5-5-5--3-3-3-3--|
E|-----------------------------|
Tap to rate this tab
 
# A B C D E F G H I J K L M N O P Q R S T U V W X Y Z