Guitaretab - guitar tabs
Song name
# A B C D E F G H I J K L M N O P Q R S T U V W X Y Z

Turbonegro - Remain Untamed tab

---------------------------------------------
Song: Remain Untamed
By: Turbonegro
Transcribed: Euroboy (Norway)	
marrrrius@hotmail.com			
---------------------------------------------


Guitar: 

Main riff 
e|-------------------------| 
B|-------------------------| 
G|-------------------------| 
D|--9--10--7--9--10--7--9--| 
A|--9--10--7--9--10--7--9--| 
E|--7---8--5--7---8--5--7--|

 

Euroboy plays this while the main riff is played in the beginning 
solo thing

 
e|--6b--| 
B|------| 
G|------| 
D|------| 
A|------| 
E|------| 



lead - while the main riff is played
 
e|--------------------------------------------| 
B|--------------------------------------------| 
G|-----------7---------7-----------7--9b-9p7--| 
D|----7h9----9p7---------7h9------------------| 
A|--9---------------------9-------------------| 
E|--------------------------------------------|
[ Tab from: http://www.guitaretab.com/t/turbonegro/73801.html ]

 GET IT ON!

Chorus 
e|--------------------------------------------------------------------------------| 
B|--------------------------------------------------------------------------------| 
G|--------------------------------------------------------------------------------| 
D|--5-5-5-5-5-5-5-5--4-4-4-4-4-4-4-4--12-12-12-12-12-12-12-12--7-7-7-7-7-7-7-7----| 
A|--5-5-5-5-5-5-5-5--4-4-4-4-4-4-4-4--12-12-12-12-12-12-12-12--7-7-7-7-7-7-7-7----| 
E|--3-3-3-3-3-3-3-3--2-2-2-2-2-2-2-2--10-10-10-10-10-10-10-10--5-5-5-5-5-5-5-5----| 


e|--------------| 
B|--------------| 
G|--------------| 
D|--5--4--7--7--| 
A|--5--4--7--7--| 
E|--3--2--5--5--|


 

While the main riff is played 
(I don't know how many times this are played)
 
e|--7-7-7-7-7-7-7-7--| 
B|-------------------| 
G|-------------------| 
D|-------------------| 
A|-------------------| 
E|-------------------| 






Related for Remain Untamed tab
Advertisement will be closed in 10 seconds