Song name
# A B C D E F G H I J K L M N O P Q R S T U V W X Y Z

Turbonegro - Dont Say Motherfucker Motherfucker tab

                 Turbonegro - Don't say motherfucker, motherfucker



intro:
--------------------------|
--------------------------|
-----7---------------9----| (2x)
-5---7---2---9---7---9----|
-5---5---2---9---7---7----|
-3-------0---7---5--------|


Verse:
--------------------------|
--------------------------|
-----7---------------9----| (2x)
-5---7---2---9---7---9----|
-5---5---2---9---7---7----|
-3-------0---7---5--------|


Refrain:
------------------------------------------------------|
------------------------------------------------------|
----5----------------7----------------5---------------|
-5--5--5-5-5------7--7--7-7-7------3--5--5----5----2--|
-5--3--5-5-5------7--5--7-7-7------3--3--5----5----2--|
-3-----3-3-3------5-----5-5-5------1-----3----7----0--|


--------------------------|
--------------------------|
-----7---------------9----|
-5---7---2---9---7---9----|
-5---5---2---9---7---7----|
-3-------0---7---5--------|


------------------------------------------------------------------------------|
--18b20b18--15------------15b17b15--12--------------------------12--12----15--|b
---------------17b--17b-----------------14b--14b-----12--14b16----------------|
------------------------------------------------------------------------------|
------------------------------------------------------------------------------|
------------------------------------------------------------------------------|

Verse:
--------------------------|
--------------------------|
-----7---------------9----| (2x)
-5---7---2---9---7---9----|
-5---5---2---9---7---7----|
-3-------0---7---5--------|

Refrain:
------------------------------------------------------|
------------------------------------------------------|
----5----------------7----------------5---------------|
-5--5--5-5-5------7--7--7-7-7------3--5--5----5----2--|
-5--3--5-5-5------7--5--7-7-7------3--3--5----5----2--|
-3-----3-3-3------5-----5-5-5------1-----3----7----0--|

Bridge:
--------------------------------------------------------|
--------------------------------------------------------|
----4--5--5---7---4--4----4--5--5---7---4---------------|
-2--4--5--5---7---4--4----4--5--5---7---4---------------|
-2--2--3--3---5---2--2----2--3--3---5---2---------------|
-0------------------------------------------------------|

Verse:
--------------------------|
--------------------------|
-----7---------------9----| (2x)
-5---7---2---9---7---9----|
-5---5---2---9---7---7----|
-3-------0---7---5--------|


Refrain:
------------------------------------------------------|
------------------------------------------------------|
----5----------------7----------------5---------------|   (2x)
-5--5--5-5-5------7--7--7-7-7------3--5--5----5----2--|
-5--3--5-5-5------7--5--7-7-7------3--3--5----5----2--|
-3-----3-3-3------5-----5-5-5------1-----3----7----0--|


----------|
----------|
----------|    (4x)
--2---7---|
--2---7---|
--0---5---|


------------------------------------------------------------------------------|
--18b20b18--15------------15b17b15--12--------------------------12--12----15--|b
---------------17b--17b-----------------14b--14b-----12--14b16----------------|
------------------------------------------------------------------------------|
------------------------------------------------------------------------------|
------------------------------------------------------------------------------|
Tap to rate this tab
 
# A B C D E F G H I J K L M N O P Q R S T U V W X Y Z