Song name
# A B C D E F G H I J K L M N O P Q R S T U V W X Y Z

Turbonegro - If You See Kaye tab

here's the solo, I'm not sure but it might be alright.

Tuning: Standard

e|--------------------------------------|
B|--------------------------------------|
G|--------------------------------------|
D|---5-7-----------5-----5-7b9b7-5p7----|
A|-------5-7---5-7---7------------------|
E|--------------------------------------|

e|------------------------------------------------------------------|
B|------------------------------------------------------------------|
G|------------------------------------------------------------------|
D|------0---0p2--4b5b4-2-0---0-2-5b7b5-5-------------------------5--|
A|--0p2---2----------------2-------------5h7p5-5h7p5-5h7p5-5h7p5----|
E|------------------------------------------------------------------|

e|---------------------------------------------------|
B|---------------------8-----8-10--8-10--8-10--8-10--|
G|---9--7-9--7-9---7-9---9-7-------------------------|
D|---------------------------------------------------|
A|---------------------------------------------------|
E|---------------------------------------------------|

e|--12p10-------12p10-------12p10-12-12--------15--------17-----12-12-12-12.....--|
B|--------12p10-------12p10--------------15-12-----15-12-----15-------------------|
G|--------------------------------------------------------------------------------|
D|--------------------------------------------------------------------------------|
A|--------------------------------------------------------------------------------|
E|--------------------------------------------------------------------------------|
Tap to rate this tab
# A B C D E F G H I J K L M N O P Q R S T U V W X Y Z