Song name
# A B C D E F G H I J K L M N O P Q R S T U V W X Y Z

Turbonegro - Do You Do You Dig Destruction tab

Do You Do You Dig Destruction
Turbonegro
Retox

Email me if any error's peter_s_69@hotmail.com


Verse

|--------------------------------------------------------------------------|
|--------------------------------------------------------------------------|
|-------------11-11-11-11-11-11-11--9-9-9-9-9-9-9--11-11-11-11-11-11-11-11-|
|-11-11-11-11-11-11-11-11-11-11-11--9-9-9-9-9-9-9--11-11-11-11-11-11-11-11-|
|-11-11-11-11-9--9--9--9--9--9--9---7-7-7-7-7-7-7--9--9--9--9--9--9--9--9--|
|-9--9--9--9---------------------------------------------------------------|

|----------|
|----------|
|-------9--|
|--9-11----|
|----------|
|----------|


Pre Chorus 

|-------------------------------------------------------------------------|
|-------------------------------------------------------------------------|
|-------------------------------------------------------------------------|
|--6\11-------11-------6\11--------4\9--11-------6\11-------11--------9---|
|--6\11-------11-------6\11--------4\9--11-------6\11-------11--------9---|
|--4\9--------9--------4\9---------2\7--11-------4\9--------9---------7---|



Chorus

|-------------------------------------------------------------------------|
|-------------------------------------------------------------------------|
|-------------------------------------------------------------------9-8---|
|--11-11-11-11-11-11-11--6-6-6-6-6-6-6-6--7-7-7-7-7-7-7-7--4-4-4-4--9-8---|
|--11-11-11-11-11-11-11--6-6-6-6-6-6-6-6--7-7-7-7-7-7-7-7--4-4-4-4--7-6---|
|--9--9--9--9--9--9--9---4-4-4-4-4-4-4-4--5-5-5-5-5-5-5-5--2-2-2-2--------|

Have Fun.




Tap to rate this tab
# A B C D E F G H I J K L M N O P Q R S T U V W X Y Z