Song name
# A B C D E F G H I J K L M N O P Q R S T U V W X Y Z

Turbonegro - No Im Alpha Male tab

Help us improve GuitareTab! Take a short survey!
	Turbonegro - No, I'm Alpha Male
	(RETOX 2007)

	h = hammer on
	p = pull off
	b = bend (string)
	~ = let ring


   -INTRO-  (Euroboy may use the guitar pick here also)

e||-h10p0h12p0-h10p0h12p0-h10p0h12p0-h10p0h12p0--h7p0h10p0-h7p0h10p0-h7p0h10p0-h7p0h10p0-|
b||--------------------------------------------------------------------------------------|
g||--------------------------------------------------------------------------------------|
d||-----------------(thunderstruck-style)------------------------------------------------|
a||--------------------------------------------------------------------------------------|
E||--------------------------------------------------------------------------------------|


e||-h5p0h8p0-h5p0h8p0-h5p0h8p0-h5p0h8p0--h3p0h5p0-h3p0h5p0-h3p0h5p0-h3p0h5p0-------------|
b||--------------------------------------------------------------------------------------|
g||--------------------------------------------------------------------------------------|
d||--------------------------------------------------------------------------------------|
a||--------------------------------------------------------------------------------------|
E||--------------------------------------------------------------------------------------|

     (0:09)

e||-----------------------------------------------------------------------|
b||-----------------------------------------------------------------------|
g||---9--7--9~---12-11-----10-9----------9--7--9----5-5--7-7--------------|   (X 2)
d||---9--7--9~---12-11-12--10-9-10-------9--7--9----5-5--7-7--------------|
a||---7--5--7~---10-9--12--8--7-10-------7--5--7----3-3--5-5--------------|
E||--------------------10-------8-----------------------------------------|

  -(0:25) / CHORUS RIFFS-

e||-----------------------------------------------------|
b||-----------------------------------------------------|
g||-----9--7--9-----------------12-11-----10-9----------|
d||-----9--7--9-----------------12-11-12--10-9-10-------|
a||-----7--5--7-----------------10-9--12--8--7-10-------|
E||-------------0-0-0-0-0-0-0-0-------10-------8--------|

  ------------------------------------------------------|
  ------------------------------------------------------|
  ----9--7--9------------------55-555---77-777----------|
  ----9--7--9------------------55-555---77-777----------|
  ----7--5--7------------------33-333---55-555----------|
  ------------0-0-0-0-0-0-0-0---------------------------|


             ------------------------------------------------------|
             ------------------------------------------------------|
    (lead guitar)     ---------------------------------------------|
  hold your index-finger --------------------------5~---(7-7-5~)---|
  STILL on the 5th fret  ------5h7-----5h7-----5h7-----------------|
              --5h7-----5h7-----5h7--------------------------------|

   -VERSE CHORDS-

e||----------------------------------------------------------|
b||----------------------------------------------------------|
g||-----9------------------------9---------------------------|
d||---7-9-9-9--9-9-9--9-9-9----7-9-9-9--9-9-9--9-9-9---------|
a||---7-7-9-9--9-9-9--9-9-9----7-7-9-9--9-9-9--9-9-9---------|
E||---5---7-7--7-7-7--7-7-7----5---7-7--7-7-7--7-7-7---------|

									 (x 2)
e||----------------------------------------------------------------|
b||----------------------------------------------------------------|
g||------12--------------------------------9-----------------------|
d||---10-12-12-12--12-12-12--12-12-12----7-7-9-9--9-9-9--9-9-9-----|
a||---10-10-12-12--12-12-12--12-12-12----7-7-9-9--9-9-9--9-9-9-----|
E||---8-----10-10--10-10-10--10-10-10----5---7-7--7-7-7--7-7-7-----|

   -INTERLUDE- (after 2 times, the lead-guitar plays the INTRO RIFF twice with this!)

e||------------------------------------------------------------------------------------|
b||------------------------------------------------------------------------------------|
g||-------------------9-9-999-999-999--8-8-888-888-888---------------------------------|
d||--7-7-777-777-777--9-9-999-999-999--8-8-888-888-888--10-10-101010-101010-101010-----|
a||--7-7-777-777-777--7-7-777-777-777--6-6-666-666-666--10-10-101010-101010-101010-----|
E||--5-5-555-555-555------------------------------------8--8--8-8-8--8-8-8--8-8-8------|

   -SOLO- (on chorus riffs)

e||-12-------12-------------------------------------------------------------|
b||-15b17-15-15b17~---12----------------------------------------------------|
g||----------------------14-12-14-12----12~--------------------------12-----|
d||----------------------------------14-------------------12~--14-12----14~-|
a||-------------------------------------------------12-14-------------------|
E||-------------------------------------------12-15-------------------------|

e||--17-17-15~---0-12-0-0-10-0-0-7-0-10-0-0-7-0-0-5-0-3~--------------------|
b||---------------------------------------------------------17~----15-17-15-|
g||-------------------------------------------------------------16----------|
d||---------------FAST!!!---------------------------------------------------|
a||-------------------------------------------------------------------------|
E||-------------------------------------------------------------------------|


e||--------------------------------------------------------------------------|
b||-12--17h15h12-15h12-17h15h12-15h12-17h15h12-15h12-17h15h12-15h12--15b17~--|
g||--------------------------------------------------------------------------|
d||--------------------------------------------------------------------------|
a||------(quick technique)---------------------------------------------------|
E||--------------------------------------------------------------------------|


   -BRIDGE- (after solo)

e||-------------------------------------------------------------------------|
b||-------------------------------------------------------------------------|
g||-------------------------------------------------------------------------|
d||-------------------------------------5-4--------5-4--------5-4--------5-4|
a||------------------------------77-777-----55-555-----33-333-----22-222----|
E||-12~-12~--3-2-0~--then BASS!>--------------------------------------------|


   -after last chorus/ENDING-

e||----------------------------------------------------------12-------12------|
b||----------------------------------------------------------15b17-15-15b17~--|
g||---777-777-777-777--777-777-777-777-777----9--7--9---or--------------------|
d||---777-777-777-777--777-777-777-777-777----9--7--9-------------------------|
a||---555-555-555-555--555-555-555-555-555----7--5--7-------------------------|
E||---------------------------------------------------------------------------|
Related for No Im Alpha Male tab