Song name
# A B C D E F G H I J K L M N O P Q R S T U V W X Y Z

Turbonegro - Were Gonna Drop The Atom Bomb tab

We're gonna drop the atom bomb
Turbonegro
Retox

Any error's, email me at peter_s_69@hotmail.com



Intro:


|----------------------------------------------|
|----------------------------------------------|
|--9--x-10---x--x--x---12--x--13---x--x--x-----|
|--9--x-10---x--x--x---12--x--13---x--x--x-----|
|--7--x-8----x--x--x---10--x--11---x--x--x-----|
|----------------------------------------------|


|--------------------------------------------------------------------------|
|--------------------------------------------------------------------------|
|--12--11-----7--7----11----9------9----11----12----14---11---7----11----9-|
|--12--11-----7--7----11----9------9----11----12----14---11---7----11----9-|
|--10--9------5--5----9-----7------7----9-----10----12---9----5----9-----7-|
|--------------------------------------------------------------------------|


|--------------------------------------------------------------------------|
|--------------------------------------------------------------------------|
|--9--11---12--11----7--7---11---9-------9---11---12---14---11---7---11----|
|--9--11---12--11----7--7---11---9-------9---11---12---14---11---7---11----|
|--7--9----10--9-----5--5---9----7-------7---9----10---12---9----5---9-----|
|--------------------------------------------------------------------------|


|-------------------------------------------|
|-------------------------------------------|
|--9------12------7------9------12------7---|
|--9------12------7------9------12------7---|
|--7------10------5------7------10------5---|
|-------------------------------------------|


Mister... Oslo....
|------------------------------------------|
|------------------------------------------|
|--9--x-10---x--x--x---12--x--13---x--x--x-| X 2
|--9--x-10---x--x--x---12--x--13---x--x--x-|
|--7--x-8----x--x--x---10--x--11---x--x--x-|
|------------------------------------------|




How did ya get so far..
|------------------------------------------------------------------------|
|------------------------------------------------------------------------|
|--12--x--11--10--9----x--x--x-----7/-9---x--12----x--11--10--9----7/-9--|
|--12--x--11--10--9----x--x--x-----7/-9---x--12----x--11--10--9----7/-9--|
|--10--x--9---8---7----x--x--x-----5/-7---x--10----x--9---8---7----5/-7--|
|------------------------------------------------------------------------|




Mister..Oslo..
|-------------------------------------------|
|-------------------------------------------|
|--9--x-10---x--x--x---12--x--13---x--x--x--|
|--9--x-10---x--x--x---12--x--13---x--x--x--|   X2
|--7--x-8----x--x--x---10--x--11---x--x--x--|
|-------------------------------------------|


Sucking your fancy cigar..
|------------------------------------------------------------------------|
|------------------------------------------------------------------------|
|--12--x--11--10---9---x--x--x----7/-9---x--12---x--11--10---9-----7/-9--|
|--12--x--11--10---9---x--x--x----7/-9---x--12---x--11--10---9-----7/-9--|
|--10--x--9---8----7---x--x--x----5/-7---x--10---x--9---8----7-----5/-7--|
|------------------------------------------------------------------------|


You irritate us man, but that's beside the fact..
|---------------------------------------------------|
|---------------------------------------------------|
|---7----------------------5------------------------|
|---7----------------------5------------------------|
|---5----------------------3------------------------|
|---------------------------------------------------|


We're gonna drop something and we don't want it back..
|---------------------------------------------------|
|---------------------------------------------------|
|----7---------------------4------------------------|
|----7---------------------4------------------------|
|----5---------------------2------------------------|
|---------------------------------------------------|


We're gonna drop the atom bomb.. We're gonna burn your city down..
|------------------------------------------------------------------------|
|------------------------------------------------------------------------|
|--12--11----7--7----11----9--------9---11---12---14---11---7---11----9--|
|--12--11----7--7----11----9--------9---11---12---14---11---7---11----9--|
|--10--9-----5--5----9-----7--------7---9----10---12---9----5---9-----7--|
|------------------------------------------------------------------------|


And now today is over but the sun....Cause we're gonna drop the atom...
|----------------------------------------------------------------------|
|----------------------------------------------------------------------|
|--9--11---12--11---7--7---11---9-----9---11---12---14---11---7---11---|
|--9--11---12--11---7--7---11---9-----9---11---12---14---11---7---11---|
|--7--9----10--9----5--5---9----7-----7---9----10---12---9----5---9----|
|----------------------------------------------------------------------|


bomb....atom bomb...atom bomb....
|--------------------------------------------------|
|--------------------------------------------------|
|---9------12------7------9------12-------7--------|
|---9------12------7------9------12-------7--------|
|---7------10------9------7------10-------5--------|
|--------------------------------------------------|
Oslo.. woman.
|-------------------------------------------|
|-------------------------------------------|
|--9--x-10---x--x--x---12--x--13---x--x--x--|   X2
|--9--x-10---x--x--x---12--x--13---x--x--x--|
|--7--x-8----x--x--x---10--x--11---x--x--x--|
|-------------------------------------------|


How do you get your kicks...playing with various sticks..
|----------------------------------------------------------------------|
|----------------------------------------------------------------------|
|--12--x--11--10---9---x--x--x----7/-9---x--12---x--11--10--9----7/-9--|
|--12--x--11--10---9---x--x--x----7/-9---x--12---x--11--10--9----7/-9--|
|--10--x--9---8----7---x--x--x----5/-7---x--10---x--9---8---7----5/-7--|
|----------------------------------------------------------------------|


Oslo...woman...
|-------------------------------------------|
|-------------------------------------------|
|--9--x-10---x--x--x---12--x--13---x--x--x--|
|--9--x-10---x--x--x---12--x--13---x--x--x--|
|--7--x-8----x--x--x---10--x--11---x--x--x--|
|-------------------------------------------|


How did you get so dumb...sucking on various thumbs..
|---------------------------------------------------------------------|
|---------------------------------------------------------------------|
|--12--x--11--10--9---x--x--x------7/-9---x--11--10---9------7/-9-----|
|--12--x--11--10--9---x--x--x------7/-9---x--11--10---9------7/-9-----|
|--10--x--9---8---7---x--x--x------5/-9---x--9---8----7------5/-9-----|
|---------------------------------------------------------------------|


Your so high culture...
|------------------------------------------------------|
|------------------------------------------------------|
|--7-------------------------5-------------------------|
|--7-------------------------5-------------------------|
|--5-------------------------3-------------------------|
|------------------------------------------------------|


You see the circling vultures...
|------------------------------------------------------|
|------------------------------------------------------|
|--7-------------------------4-------------------------|
|--7-------------------------4-------------------------|
|--5-------------------------2-------------------------|
|------------------------------------------------------|


We're gonna drop the atom bomb...We're gonna kill your happy home...
|------------------------------------------------------------------------|
|------------------------------------------------------------------------|
|--9--11---12--11----7--7---11----9-----9---11----12---14---11---7---11--|
|--9--11---12--11----7--7---11----9-----9---11----12---14---11---7---11--|
|--7--9----10--9-----5--5---9-----7-----7---9-----10---12---9----5---9---|
|------------------------------------------------------------------------|


Bomb...atom bomb....atom bomb...
|----------------------------------------------------|
|----------------------------------------------------|
|------9-------12-----7-------9-------12-------7-----|
|------9-------12-----7-------9-------12-------7-----|
|------7-------10-----5-------7-------10-------5-----|
|----------------------------------------------------|



|----------------------------------------------------|
|----------------------------------------------------|
|------9-------12-----7-------9-------14-------7-----|
|------9-------12-----7-------9-------14-------7-----|
|------7-------10-----5-------7-------12-------5-----|
|----------------------------------------------------|


That's it, Have fun. Great song of new album
Tap to rate this tab
 
# A B C D E F G H I J K L M N O P Q R S T U V W X Y Z