Song name
# A B C D E F G H I J K L M N O P Q R S T U V W X Y Z

Turbonegro - Boys From Nowhere tab

----------------------------------------------------------------------------
			Boys From Nowhere - Turbonegro
----------------------------------------------------------------------------
Tabbed by: 21stcentury
Email:

Tuning: Standard

Guitar 1
e|--------------------------------------------------------------------------|
B|--------------------------------------------------------------------------|
G|--------------------------------------------------------------------------|
D|--------------------------------------------------------------------------|
A|--9-9-9-9-9-9-9-9-9-9-9-9-9-9-9-9-----------------------------------------|
E|--------------------------------------------------------------------------|
Guitar 2
e|--------------------------------------------------------------------------|
B|--------------------------------------------------------------------------|
G|--------------------------------------------------------------------------|
D|-----------------------------11-------------------------------------------|
A|--14-12-11-12-14-12-11-12-14----14----------------------------------------|
E|--------------------------------------------------------------------------|
Or if you're playing it with just one guitar all on your own then you can move it up 
frets and do both guitar parts like so.
|--------------------------------------------------------------------------|
|--------------------------------------------------------------------------|
|--------------------------------------------------------------------------|
|-----------------------------16-------------------------------------------|
|--19-17-16-17-19-17-16-17-19----19----------------------------------------|
|--14-14-14-14-14-14-14-14-14-14-14----------------------------------------|

Rhythm Guitar
|-----------------------------------------------------------------------|
|-----------------------------------------------------------------------|
|--7-7-7-7-----------------------------7-7-7-7--6-6-6-6--4-4-4-4-4-4-4--|
|--7-7-7-7--7-7-7-7--9-9-9-9--4-4-4-4--7-7-7-7--6-6-6-6--4-4-4-4-4-4-4--|
|--5-5-5-5--7-7-7-7--9-9-9-9--4-4-4-4--5-5-5-5--4-4-4-4--2-2-2-2-2-2-2--|
|-----------5-5-5-5--7-7-7-7--2-2-2-2-----------------------------------|


Verse

|-------------------------------|
|-------------------------------|
|-------------------------------|
|--4----7----6----2-2-6-7-6--4--|
|--4----7----6----2-2-6-7-6--4--|
|--2----5----4----0-0-4-5-4--2--|

Immediately after the verse play this X 1

|------------------------|
|------------------------|
|--4-------7-------------|
|--4-----7-7---7---4-----|
|--2-----7-5---7---4-----|
|--------5-----5---2-----|


Chorus X 2

|------------------------------------------------------------------------|
|------------------------------------------------------------------------|
|--7-7-7-7----------------------------7-7-7-7--6-6-6-6--4-4-4-4-4-4-4-4--|
|--7-7-7-7--7-7-7-7--9-9-9-9--4-4-4-4-7-7-7-7--6-6-6-6--4-4-4-4-4-4-4-4--|
|--5-5-5-5--7-7-7-7--9-9-9-9--4-4-4-4-5-5-5-5--4-4-4-4--2-2-2-2-2-2-2-2--|
|-----------5-5-5-5--7-7-7-7--2-2-2-2------------------------------------|


Verse again X 1
Bit after verse X 1
Chorus X 2


[Guitar during lead] X 4

|-------------------------------|
|-------------------------------|
|-------------------------------|
|--4----7----6----2-2-6-7-6--4--|
|--4----7----6----2-2-6-7-6--4--|
|--2----5----4----0-0-4-5-4--2--|


Bridge X 2

|-------------------------|
|-------------------------|
|--6----------------------|
|--6----9----7----2--9----|
|--4----9----7----2--9----|
|-------7----5----0--7----|


Bridge continue X 1

|---------------------------------------------------------------|
|---------------------------------------------------------------|
|--6-6-6---------6-6-6---------6-6-6----------------------------|
|--6-6-6--9-9-9--6-6-6--9-9-9--6-6-6--9-9-9--7-7-7-7-7-7--2--9--|
|--4-4-4--9-9-9--4-4-4--9-9-9--4-4-4--9-9-9--7-7-7-7-7-7--2--9--|
|---------7-7-7---------7-7-7---------7-7-7--5-5-5-5-5-5--0--7--|

Solo Starts on 17th fret on B string. You make it up from there.
Tap to rate this tab
 
# A B C D E F G H I J K L M N O P Q R S T U V W X Y Z