Song name
# A B C D E F G H I J K L M N O P Q R S T U V W X Y Z

Turbonegro - Hell Toupee tab

Hell Toupee
Turbonegro
Retox

Any Error's email me .. peter_s_69@hotmail.com


Verse X 4

|---------------------------------------------------------|
|---------------------------------------------------------|
|--7-7----------------------------------------------------|
|--7-7--9--9-9-9-9-9-9-9--7-7--10--10-10-10-10-10-10-10---|
|--5-5--9--9-9-9-9-9-9-9--7-7--10--10-10-10-10-10-10-10---|
|-------7--7-7-7-7-7-7-7--5-5---8---8--8--8--8--8--8--8---|


Pre Chorus X 1

|-------------------------------------------------------------------------|
|-------------------------------------------------------------------------|
|--9----9----9-------7---7---7-------9---9---9----------------------------|
|--9----9----9-------7---7---7-------9---9---9------12-12-12-12--7-7-7-7--|
|--7----7----7-------5---5---5-------7---7---7------12-12-12-12--7-7-7-7--|
|---------------------------------------------------10-10-10-10--5-5-5-5--|


Chorus  X2

|------------------------------------------------------------------|
|------------------------------------------------------------------|
|------------------------------------------------------------------|
|--9-9-9-9-9-9-9-9--7-7-7-7-7-7-7-7--2-2-2-2--5-5-5-5-5-5-5-5-5-5--|
|--9-9-9-9-9-9-9-9--7-7-7-7-7-7-7-7--2-2-2-2--5-5-5-5-5-5-5-5-5-5--|
|--7-7-7-7-7-7-7-7--5-5-5-5-5-5-5-5--0-0-0-0--3-3-3-3-3-3-3-3-3-3--|


Have Fun.
Tap to rate this tab
# A B C D E F G H I J K L M N O P Q R S T U V W X Y Z