Song name
# A B C D E F G H I J K L M N O P Q R S T U V W X Y Z

Turbostaat - Harm Rochel tab

Artist: Turbostaat
Song: Harm Rochel
Album: Vormann Leiss

tabbed by: Eric Lambrecht
~~~~~~~~~~~~~~
Great song by a great band!
key: e-minor

VERSES:
    e
e|:-x-x-x-x-:|
h|:-x-x-x-x-:|
G|:-x-x-x-x-:| repeat various times
D|:-x-x-x-x-:|
A|:-x-x-x-x-:|
E|:-x-x-x-x-:|

CHORUS:
  Cj7   [left ]                                      e                       
e:-------------------------------------------------|-----------------------------------------------|
b:-3-----------------------------------------------|-0---------------------------------------------|
G:-4-----------------------------------------------|-0---------------------------------------------|
D:-5-----------------------------------------------|-2---------------------------------------------|
A:-3-----------------------------------------------|-2---------------------------------------------|
E:-------------------------------------------------|-----------------------------------------------|
 :      [right]                                   |                                                |
e:------------------------------------------------|------------------------------------------------|
b:------------------------------------------------|------------------------------------------------|
G:------------------------------------------------|-12-12-12-12-16-16-16-16-12-12-12-12-12-12-12-12|
D:14-14-14-14-12-12-12-12-10-10-10-10-10-10-10-10-|------------------------------------------------|
A:------------------------------------------------|------------------------------------------------|
E:------------------------------------------------|------------------------------------------------|
   Leb' doch mehr wie deine Mutter

  Cj7   [left ]            a                         e                       
e:-------------------------------------------------|-----------------------------------------------|
b:-3-----------------------1-----------------------|-0---------------------------------------------|
G:-4-----------------------2-----------------------|-0---------------------------------------------|
D:-5-----------------------2-----------------------|-2---------------------------------------------|
A:-3-----------------------0-----------------------|-2---------------------------------------------|
E:-------------------------------------------------|-----------------------------------------------|
 :      [right]                                    |                                               |
e:------------------------------------------------|------------------------------------------------|
b:------------------------------------------------|------------------------------------------------|
G:------------------------------------------------|-12-12-12-12-16-16-16-16-12-12-12-12-12-12-12-12|
D:14-14-14-14-12-12-12-12-10-10-10-10-10-10-10-10-|------------------------------------------------|
A:------------------------------------------------|------------------------------------------------|
E:------------------------------------------------|------------------------------------------------|
   Leb' bloß nicht wie ich

- VERSE
- REFRAIN

C-PART: [rhythm should be easy to find out]
   F2             F        e          e4
e:-----------------------|-------------------|
b:-8--8--8--8--..-10-10--|-8-8-8-8-..-10-10--|
G:-10-10-10-10-..-10-10--|-9-9-9-9-..-9--9---|
D:-10-10-10-10-..-10-10--|-9-9-9-9-..-9--9---|
A:-8--8--8--8--..-8--8---|-7-7-7-7-..-7--7---|
E:-----------------------|-------------------|

3rd REFRAIN, right channel:
e:------------------------------------------------|------------------------------------------------|
b:------------------------------------------------|------------------------------------------------|
G:19-19-19-19-19-19-19-19-21-21-21-21-21-21-21-21-|-16-16-16-16-16-16-17-17-19-19-19-19-19-19-19-19|
D:------------------------------------------------|------------------------------------------------|
A:17-17-17-17-17-17-17-17-19-19-19-19-19-19-19-19-|-14-14-14-14-14-14-15-15-17-17-17-17-17-17-17-17|
E:------------------------------------------------|------------------------------------------------|

- C-PART again

e|:----------8------------|---------7----------:|
b|:--------8-----8--------|-------8-----8------:|
G|:-----10-----------10---|-----9-----------9--:|
D|:---10------------------|---9----------------:|
A|:-8---------------------|-7------------------:|
E|:-----------------------|--------------------:|
  Ja leb' doch...
Tap to rate this tab
 
# A B C D E F G H I J K L M N O P Q R S T U V W X Y Z