Song name
# A B C D E F G H I J K L M N O P Q R S T U V W X Y Z

Turbostaat - Tufers Modell tab

Turbostaat-Täufers Modell

Intro

E|-11-11-11-11-11-11-11-11-7-7-7-7-7-7-7-7-11-11-11-11-11-11-11-11-7-7-7-7-11-11-11-11-|
B|-12-12-12-12-12-12-12-12-7-7-7-7-7-7-7-7-12-12-12-12-12-12-12-12-7-7-7-7-11-11-11-11-|
G|-13-13-13-13-13-13-13-13-8-8-8-8-8-8-8-8-13-13-13-13-13-13-13-13-8-8-8-8-12-12-12-12-|
D|-13-13-13-13-13-13-13-13-9-9-9-9-9-9-9-9-13-13-13-13-13-13-13-13-9-9-9-9-13-13-13-13-|
A|-------------------------9-9-9-9-9-9-9-9-------------------------9-9-9-9-13-13-13-13-|
E|-------------------------7-7-7-7-7-7-7-7-------------------------7-7-7-7-11-11-11-11-|

Strophe 1
Der Taeufer war ein Henker...
E|-11-11-11-11-11-11-11-11-7-7-7-7-7-7-7-7-11-11-11-11-11-11-11-11-7-7-7-7-11-11-11-11-|
B|-12-12-12-12-12-12-12-12-7-7-7-7-7-7-7-7-12-12-12-12-12-12-12-12-7-7-7-7-11-11-11-11-|
G|-13-13-13-13-13-13-13-13-8-8-8-8-8-8-8-8-13-13-13-13-13-13-13-13-8-8-8-8-12-12-12-12-|
D|-13-13-13-13-13-13-13-13-9-9-9-9-9-9-9-9-13-13-13-13-13-13-13-13-9-9-9-9-13-13-13-13-|
A|-------------------------9-9-9-9-9-9-9-9-------------------------9-9-9-9-13-13-13-13-|
E|-------------------------7-7-7-7-7-7-7-7-------------------------7-7-7-7-11-11-11-11-|

E|-11-11-11-11-11-11-11-11-7-7-7-7-7-7-7-7-11-11-11-11-11-11-11-11-7-7-7-7-11-11-11-11-|
B|-12-12-12-12-12-12-12-12-7-7-7-7-7-7-7-7-12-12-12-12-12-12-12-12-7-7-7-7-11-11-11-11-|
G|-13-13-13-13-13-13-13-13-8-8-8-8-8-8-8-8-13-13-13-13-13-13-13-13-8-8-8-8-12-12-12-12-|
D|-13-13-13-13-13-13-13-13-9-9-9-9-9-9-9-9-13-13-13-13-13-13-13-13-9-9-9-9-13-13-13-13-|
A|-------------------------9-9-9-9-9-9-9-9-------------------------9-9-9-9-13-13-13-13-|
E|-------------------------7-7-7-7-7-7-7-7-------------------------7-7-7-7-11-11-11-11-|

E|--16--16--16--16--11--11--11--11--16--16--16--16--11--11--11--11--|
B|--17--17--17--17--12--12--12--12--17--17--17--17--12--12--12--12--|
G|--16--16--16--16--11--11--11--11--16--16--16--16--11--11--11--11--|
D|------------------------------------------------------------------|
A|------------------------------------------------------------------|
E|------------------------------------------------------------------|

E|--16--16--16--16--11--11--11--11--16--16--16--16--11--11--11--11--|
B|--17--17--17--17--12--12--12--12--17--17--17--17--12--12--12--12--|
G|--16--16--16--16--11--11--11--11--16--16--16--16--11--11--11--11--|
D|------------------------------------------------------------------|
A|------------------------------------------------------------------|
E|------------------------------------------------------------------|

Refrain(4x)

Leo, Leo, Leo...
E|-------------------------------------------------------------------------------|
B|-------------------------------------------------------------------------------|
G|-13-13-13---11-11-11---8-8-8-8-8-8-8-8-8-8-8-8-8-8-8-8-11-11-11-11-11-11-11-11-|
D|-------------------------------------------------------------------------------|
A|-11-11-11---9--9--9----6-6-6-6-6-6-6-6-6-6-6-6-6-6-6-6-9--9--9--9--9--9--9--9--|
E|-------------------------------------------------------------------------------|

E|-------------------------|--------------------|
B|-------------------------|--------------------|
G|-15-15-15-15-16-16-16-16-|13---------------16-|
D|-------------------------|--------------------|
A|-13-13-13-13-14-14-14-14-|11---------------14-|
E|-------------------------|--------------------|

Strophe 2

Der Januar kommt...
E|--16--16--16--16--11--11--11--11--16--16--16--16--11--11--11--11--|
B|--17--17--17--17--12--12--12--12--17--17--17--17--12--12--12--12--|
G|--16--16--16--16--11--11--11--11--16--16--16--16--11--11--11--11--|
D|------------------------------------------------------------------|
A|------------------------------------------------------------------|
E|------------------------------------------------------------------|

E|--16--16--16--16--11--11--11--11--16--16--16--16--11--11--11--11--|
B|--17--17--17--17--12--12--12--12--17--17--17--17--12--12--12--12--|
G|--16--16--16--16--11--11--11--11--16--16--16--16--11--11--11--11--|
D|------------------------------------------------------------------|
A|------------------------------------------------------------------|
E|------------------------------------------------------------------|


Refrain(4x)

Leo, Leo, Leo...
E|-------------------------------------------------------------------------------|
B|-------------------------------------------------------------------------------|
G|-13-13-13---11-11-11---8-8-8-8-8-8-8-8-8-8-8-8-8-8-8-8-11-11-11-11-11-11-11-11-|
D|-------------------------------------------------------------------------------|
A|-11-11-11---9--9--9----6-6-6-6-6-6-6-6-6-6-6-6-6-6-6-6-9--9--9--9--9--9--9--9--|
E|-------------------------------------------------------------------------------|

E|-------------------------|
B|-------------------------|
G|-15-15-15-15-16-16-16-16-|
D|-------------------------|
A|-13-13-13-13-14-14-14-14-|
E|-------------------------|

Solo+Ende

E|---------------------------------------------------------------------------|
B|---------------------------------------------------------------------------|
G|-13--------15-16-----------------13--------15-16---------------------------|
D|---------------------------------------------------------------------------|
A|-11--------13-14-----------------11--------13-14---------------------------|
E|---------------------------------------------------------------------------|

E|---------------------------------------------------------------------------|
B|---------------------------------------------------------------------------|
G|----13------------13--------13-------13-----------13-----------13----------|
D|-13------13--------------13-------14------14----------------14-------------|
A|---------------14------------------------------14--------------------------|
E|---------------------------------------------------------------------------|


E|---------------------------------------------------------------------------|
B|---------------------------------------------------------------------------|
G|----13------------13--------13-------13-----------13-----------------------|
D|-13------13--------------13-------14------14-------------------------------|
A|---------------14------------------------------14--------------------------|
E|---------------------------------------------------------------------------|

E|-------------------------------------------------------------------------|
B|-------------------------------------------------------------------------|
G|-16-16-16-16-16-16-18-18-18-18-18-18-16-16-16-16-16-16-18-18-18-18-18-18-|
D|-------------------------------------------------------------------------|
A|-14-14-14-14-14-14-16-16-16-16-16-16-14-14-14-14-14-14-16-16-16-16-16-16-|
E|-------------------------------------------------------------------------|

E|--------------------------------------------------------------------|
B|--------------------------------------------------------------------|
G|--9-9-9--13-13-13--8-8-8-8-8-8-8-8-9-9-9--13-13-13--8-8-8-8-8-8-8-8-|
D|--------------------------------------------------------------------|
A|--7-7-7--11-11-11--6-6-6-6-6-6-6-6-7-7-7--11-11-11--6-6-6-6-6-6-6-6-|
E|--------------------------------------------------------------------|


E|--------------------------------------------------------------------|
B|--------------------------------------------------------------------|
G|--9-9-9--13-13-13--8-8-9-9-9--13-13-13--8---------------------------|
D|--------------------------------------------------------------------|
A|--7-7-7--11-11-11--6-6-7-7-7--11-11-11--6---------------------------|
E|--------------------------------------------------------------------|


tabbed by
Uniraf@gmail.com
Tap to rate this tab
 
# A B C D E F G H I J K L M N O P Q R S T U V W X Y Z