Song name
# A B C D E F G H I J K L M N O P Q R S T U V W X Y Z

Turbostaat - Pennen Bei Glufke tab

Turbostaat - Pennen Bei Glufke

Ist mein erster Tabversuch, ich hab' teilweise versucht die Rhythmen mit Hilfe von 
Zeichen darzustellen,
tut mir Leid falls das eher verwirrt als hilft.

Standard Tuning

W = Ganze Note
H = Halbe Note
Q = Viertel Note
E = In diesem Tab eine Achtel Note, Sonst aber immer ein E-Dur Akkord!
S = Sechzehntel Note
/ = Slide
h = hammer on
p = pull off


Bass


Intro:

Ein Takt nachdem Einstiegsakkord:

g|-----------------|
d|-----------------|
a|-----------------|
e|-5-5-5-5-5-5-5-5-| 8x

Verse/Refrain:

g|-----------------------------------------------------------------|
d|-----------------------------------------------------------------|
a|-------------------------------------------------5-5-5-5-5-5-5-5-|
e|-5-5-5-5-5-5-5-5-8-8-8-8-8-8-8-8-3-3-3-3-3-3-3-3-----------------| x2

Nach den ersten 2 mal bei "Und dann die Nacht..":
   W
g|-----------------|
d|-----------------|
a|-----------------|
e|-1---------------| einen Takt halten und dann wieder ins Versschema sliden.

Verse/Refrain:

g|-----------------------------------------------------------------|
d|-----------------------------------------------------------------|
a|-------------------------------------------------5-5-5-5-5-5-5-5-|
e|-5-5-5-5-5-5-5-5-8-8-8-8-8-8-8-8-3-3-3-3-3-3-3-3-----------------| x9

Bridge:

   W  W    H      Q      S
g|------------------------------|
d|------------------------------|
a|------------------------------|
e|-1--1/5--1(x4)--1(x4)--1(x16)-|

Ende:

g|----------------------------------------------------------------|
d|----------------------------------------------------------------|
a|------------------------------------------------5-5-555-5-5-555-|
e|-5-5-555-5-5-555-8-8-888-8-8-888-3-3-333-3-3-333----------------| x4



Gitarre


Intro:

   W
e|-0-|
b|-0-|
g|-9-|
d|-9-|
a|-7-|
e|-7-| 2 Takte lang (Feedback bis zum Versanfang)

"Und dann die Nacht.."
               W
e|-------------0----|
b|-------------0----|
g|-------------9----|
d|-------------10---|
a|-------------8----|
e|------------------|

Auf den 3. Schlag des folgenden Taktes:
        W  H      W  H
e|-----------------------------|
b|-----------------------------|
g|-9h10p9--5--4----------------|
d|--------------5-7--3--2----- |
a|-------------------------5-3-|
e|-----------------------------|

Die zweite Gitarre schrubbt während beider Verse chaotisch über abgedämpfte Seiten.

Refrain:

Gitarre 1
   Am   C    G    Dm
e|-------------3-----1-|
b|----1----1----3---3--|
g|---2----0--------2---|
d|--2----2--------0----|
a|-0----3-----2--------|
e|-----------3---------|  Jedes Picking dauert einen Takt.

Gitarre 2

e|-8------12------15-----13-----12-----10------|
b|-8(x16)-12(x16)-15(x8)-13(x4)-12(x4)-10(x16)-|
g|---------------------------------------------|
d|---------------------------------------------|
a|---------------------------------------------|
e|---------------------------------------------|

Danach:

Gitarre 1

e|-----------------3---5-------1---3----3h5-|
b|-3h5-----3h5------------------------------|
g|------------------------------------------|
d|------------------------------------------|
a|------------------------------------------|
e|------------------------------------------|

Gitarre 2

e|--0-0-0-0-0-0-0-0-0-0-0-0-0-0-0--------|
b|-55555566555555558888101010106666666p5-|
g|---------5-5-5-5-5-5-9---9---5---------|
d|---------------------------------------|
a|---------------------------------------|
e|---------------------------------------|

Dann wieder Vers (dieses mal nur die abgedämpfte Gitarre) und Refrain.

Bridge:

Gitarre 1
   W  W    H      Q      S
e|-------------------------------|
b|-------------------------------|
g|-9--9----9------9------9-------|
d|-10-10---10-----10-----10------|
a|-8--8----8-(x4)-8-(x4)-8-(x16)-|
e|-------------------------------|

Gitarre 2
   E  S S S S S S  E
e|-x--x-x-x-x-x-x--x-|
b|-x--x-x-x-x-x-x--x-|
g|-x--x-x-x-x-x-x--x-|
d|-x--x-x-x-x-x-x--x-|
a|-x--x-x-x-x-x-x--x-|
e|-x--x-x-x-x-x-x--x-| x12 & danach für den Rest der Bridge durchgehend 16tel.

Letzter Refrain:

Gitarre 1
   Am     C      G      Dm
e|---------------3------1--|
b|-1------1------3------3--|
g|-2------0------0------2--|
d|-2------2------0------0--|
a|-0------3------2---------|
e|---------------3---------| Die Akkorde werden nun nicht mehr gepickt sondern 
durchgehend angeschlagen, jeder einen Takt lang und das insgesamt 4 mal.


Gitarre 2 spielt zuerst eine dreckigere Version ihres üblichen Refrain Parts und 
wechselt nach 2 maligem Durchspielen jener zur Melodie nach dem ersten Refrain:

e|--0-0-0-0-0-0-0-0-0-0-0-0-0-0-0--------|
b|-55555566555555558888101010106666666p5-|
g|---------5-5-5-5-5-5-9---9---5---------|
d|---------------------------------------|
a|---------------------------------------|
e|---------------------------------------| <-- Also das Ding hier nur diesesmal auch in 
schmutziger (evtl auch als Akkorde, bin mir da aber nicht sicher) x2
Tap to rate this tab
# A B C D E F G H I J K L M N O P Q R S T U V W X Y Z