Guitaretab - guitar tabs
Song name
# A B C D E F G H I J K L M N O P Q R S T U V W X Y Z

Turin Brakes - 5 Mile These Are The Days tab

TURIN BRAKES
5 Mile (These Are The Days)
-tabbed by Keir Alexander keiralx@yahoo.co.uk

This song wasn't on the original release of Ether Song, but was written after the Turin
Brakes' record company insisted on a single that would boost sales, it has since been
added to a new version of Ether song.   Its a great song by a great band, I noticed no-
one has tabbed it as yet so I went ahead,

(standard tuning)

intro and verse chords:
this is the main chord sequence,

	D	   G	     A   D/F#     G
E|----0----|---0---|---0----0---|---0----|
B|----0----|---3---|---2----2---|---3----|
G|----11---|---0---|---2----2---|---0----|
D|----12---|---0---|---2----0---|---0----|
A|----12---|---0---|---0----0---|---0----|
E|----10---|---3---|---x----2---|---3----|

Guitar 1: (hit the base note of each chord twice at each progression)

Guitar 2:  Gale plays a solo over this with a slide...

E|-------5-------------------------------------------------0---|
B|----7------------7-5---5--------------------7\3---------0----|
G|---------------------7-----7-------7/9-----------------------|
D|------------------------------77----------------------------|


Brige Chords:
       A      G
E|-----5------3-----|
B|-----7------5-----|
G|-----7------5-----|    repeat x3
D|-----6------4-----|
A|-----5------3-----|
E|-----5------3-----|

[ Tab from: http://www.guitaretab.com/t/turin-brakes/59532.html ]
CHORUS:
            D     G   Asus4
E|----3-----3-----0----|
B|----2-----3-----3----|
G|----3-----0-----2----|
D|----0-----0-----2----|
A|----x-----2-----0----|
E|----x-----3-----x----|

Guitar 1 plays these chords

Guitar 2 plays this continuously...

E|----2-------2--------3---2---0----------|
B|-------3--------3------3---3---3-----3--|
G|-----2---2----2---2---------------2-----|


Middle 8:
     D                              G
E|---2-------------2-------------|--3-------------3-----------------|
B|-------3---3---------3---3-----|------3---3---------3---3---------|
G|-----2-------2-----2-------2---|----0-------0-----0-------0-------|
D|---0-----0-------0-----0-------|----------------------------------|
A|-------------------------------|--------2-------------2-----------|
E|-------------------------------|--3-------------3-----------------|

   A                             G
---0-------------0------------|--3-------------3---------------|
-------2---2---------2---2----|------3---3---------3---3-------|
---------2-------------2------|----0-------0-----0-------0-----|
-----2-------2-----2-------2--|--------------------------------|
---0-------------0------------|--------2-------------2---------|
------------------------------|--3-------------3---------------|
Hope you enjoy playing this, it was relatively quick to do, so if you have anything to
please email me.
Related for 5 Mile These Are The Days tab