Song name
# A B C D E F G H I J K L M N O P Q R S T U V W X Y Z

Turisas - Cursed Be Iron tab

-------------------------------------------------------------------------------
			     Cursed be iron - turisas
-------------------------------------------------------------------------------
Tabbed by:
Email:bebneb@hotmail.com

Tuning: normal EADGBe

key:
/ - slide
. - palm mute
x - dead string

this is how i think it sounds sorry not full song not that good yet.

my first tab anyway so here goes:

Hammer sounds slowly fade in

intro/main riff: repeated during the song 

00:08
e|--------------------------------------------------------------------------------------|
B|--------------------------------------------------------------------------------------|
G|----------------------------------------------------------------------------99-8------|
D|---5/7/5----5---5---5-----5/7/5---7---6-----5/7/5----5---5---5----5/7/5-----xx-x------|
A|-3-3/5/3-3333-333-333---3-3/5/3-555-444---3-3/5/3-3333-333-333--3-3/5/3-333-77-6------|
E|--------------------------------------------------------------------------------------|
   .     ...  ..  ..      .       ..  ..    .       ...  ..  ..   .       ...

intro/main riff ending
00:16
e|-------------------------------------------------------------------------------------------------|
B|-------------------------------------------------------------------------------------------------|
G|-------------------------------------------------------------------------------------------------|
D|---5/7/5----5---5---5-----5/7/3---7---6-----5/7/5----5---5---5-----------------------------------|
A|-3-3/5/3-3333-333-333---3-3/5/3-555-444---3-3/5/3-3333-333-333--3----55--44--33--22--2-3---------|
E|--------------------------------------------------------------------5---4---3---2---2---2-1------|
   .       ...  ..  ..    .       ..  ..    .       ...  ..  ..   . 

long vocals part with some kind of instrument in the background

pick slide 01:19

repeat main riff x3 01:20 

repeat main riff ending x1 01:45

another vocals part

02:31
e|---------------------------------------------------------------------------|
B|---------------------------------------------------------------------------|
G|---------------------------------------------------------------------------|
D|---------------------------------------------------------------------------|
A|-222---2222---22222--2222---7/5/5--4-3-------------------------------------|
E|-000---0000---00000--0000---5/3/4--2-1-------------------------------------|
   ...   ....   .....  ....


repeat main riff x3 03:00   
repeat main riff ending x 1 03:25

then straight into:

03:34
e|---------------------------------------------------------------------------|
B|---------------------------------------------------------------------------|
G|---------------------------------------------------------------------------|
D|---------------------------------------------------------------------------|
A|--55-3/7/55--3/7/55--x6--------------55-3/7/55--x6-------------------------|
E|--33-1/5/33--1/5/33-----4-3-2-3-4-5--33-1/5/33------4-3-2-3-4-5------------|

03:51
e|---------------------------------------------------------------------------|
B|---------------------------------------------------------------------------|
G|---------------------------------------------------------------------------|
D|-555--55555-555--55555-555--55555-55-77-33-55--x2-------------432----------|
A|-333--33333-333--33333-333--33333-33-55-11-33------433-533-432---321-------|
E|---------------------------------------------------------------------------|
   ...  ..... ...  ..... ...  ..... .. .. .. ..      (not sure on this bit)
        |---|      |---|
         fast      fast

04:07
e|---------------------------------------------------------------------------|
B|---------------------------------------------------------------------------|
G|---------------------------------------------------------------------------|
D|-55-3/7/55--x6--------------55-3/7/55-x6-----------------------------------|
A|-33-1/5/33------------------33-1/5/33--------------------------------------|
E|---------------4-3-2-3-4-5----------------4-3-2-3-4-5----------------------|

repeat main riff x3
repeat main riff ending
end on

e|--------------|
B|--------------|
G|--------------|
D|-5------------|
A|-5------------|
E|-3------------|

Well there you go i hope it helps
=)






Tap to rate this tab
# A B C D E F G H I J K L M N O P Q R S T U V W X Y Z