Song name
# A B C D E F G H I J K L M N O P Q R S T U V W X Y Z

Turmion Katilot - Kirosana tab

Drop C
Distortion

Intro:
D------------------------------------------------------------------------|
A------------------------------------------------------------------------|
F------------------------------------------------------------------------|
C--0h2---0h2---0h2-0h2---0h2---0h2-2h3---2h3---2h3-2h3---2h3---3h5-------|      X4
G--0h2---0h2---0h2-0h2---0h2---0h2-2h3---2h3---2h3-2h3---2h3---3h5-------|
C--0h2-0-0h2-0-0h2-0h2-0-0h2-0-0h2-2h3-2-2h3-2-2h3-2h3-2-2h3-0-3h5-------|
       .     .         .     .         .     .         .     .

Couplet 1:
D-----------------------------------------------------------------|
A-----------------------------------------------------------------|
F-----------------------------------------------------------------|
C--2-----2-----2h3-------------2-----2-----2p0h2-----3-----3h5----|      X4
G--2-----2-----2h3-------------2-----2-----2p0h2-----3-----3h5----|
C--2-2-2-2-2-2-2h3-2-22-2-22-2-2-0-0-2-0-0-2p0h2-0-0-3-0-0-3h5----|
     . .   . .                 . .   . .       . .   . .


D-----------------------------------------------------------------|
A-----------------------------------------------------------------|
F-----------------------------------------------------------------|
C--2--------------------------------------------------------------|
G--2--------------------------------------------------------------|
C--2-0000---------------------------------------------------------|
     ....

Refrain:
D------------------------------------------------------------------------|
A------------------------------------------------------------------------|
F------------------------------------------------------------------------|
C--0h2---0h2---0h2-0h2---0h2---0h2-2h3---2h3---2h3-2h3---2h3---3h5-------|      X4
G--0h2---0h2---0h2-0h2---0h2---0h2-2h3---2h3---2h3-2h3---2h3---3h5-------|
C--0h2-0-0h2-0-0h2-0h2-0-0h2-0-0h2-2h3-2-2h3-2-2h3-2h3-2-2h3-0-3h5-------|
       .     .         .     .         .     .         .     .

Couplet 2:
D------------------------------------------------------------------|
A------------------------------------------------------------------|
F------------------------------------------------------------------|
C--0h2----------------2p0---------------2h3-----------2000033352-2-|
G--0h2----------------2p0---------------2h3-----------2000033352-2-|
C--0h2--2-2-2-2-2-2---2p0--0-0-0-0-3-2--2h3-33-3--333-2000033352-2-|
        . . . . . .        . . . . . .      .. .  ...


D-----------------------------------------------------------------|
A-----------------------------------------------------------------|
F-----------------------------------------------------------------|
C--0h2-2-2-2-2p0-0-0-0-0h2-2-2-2-0--------------------------------|
G--0h2-2-2-2-2p0-0-0-0-0h2-2-2-2-0--------------------------------|
C--0h2-2-2-2-2p0-0-0-0-0h2-2-2-2-0--------------------------------|


D-----------------------------------------------------------------|
A-----------------------------------------------------------------|
F-----------------------------------------------------------------|
C--0h2-2-2-2-0-0-0-0-0h2-2-2h3p22---------------------------------|
G--0h2-2-2-2-0-0-0-0-0h2-2-2h3p22---------------------------------|
C--0h2-2-2-2-0-0-0-0-0h2-2-2h3p22-------------0000----------------|
                                              ....
Tap to rate this tab
# A B C D E F G H I J K L M N O P Q R S T U V W X Y Z