Song name
# A B C D E F G H I J K L M N O P Q R S T U V W X Y Z

Turmion Katilot - Verta Ja Lihaa tab

Official website: http://www.turmionkatilot.com/

00:00
|-------------------------------------------------|-----------------|
|-------------------------------------------------|-----------------|
|-------------------------------------------------|-----------------|
|-------5/7---5/8-------8/6---7/5-------5/7---5/8-|-0h1-----2---3---|
|-0-0-0-3/5-0-3/6-0-0-0-6/4-0-5/3-0-0-0-3/5-0-3/6-|-0h1-0-0-2-0-3---|
|-0-0-0-----0-----0-0-0-----0-----0-0-0-----0-----|-0h1-0-0-2-0-3---|

00:11
|---------------|
|---------------|
|---------------|
|-----8---7-----|
|-0-0-8---7-----|
|-0-0-8---7-----|

00:24 (not guitar, but can be played on it)
|-----------1---0-----------0---1---------3---1-0---------6-----6-|
|-3-3-3-3-3---3---3-3-3-3-3---3---3-3-3-3---3-----3-3-3-3---3-3---|
|-----------------------------------------------------------------|
|-----------------------------------------------------------------|
|-----------------------------------------------------------------|
|-----------------------------------------------------------------|

00:35
|--------------|
|--------------|
|--------------|
|--------------|
|-1-1--1--1--1-|
|-1-1--1--1--1-|

00:36
|------------------------------------------------------|
|------------------------------------------------------|
|------------------------------------------------------|
|-0-0--0--0--0--0--0-2h3-2h3-0-0--0--0--0--------------|
|-0-0--0--0--0--0--0-2h3-2h3-0-0--0--0--0-1-1--1--1--1-|
|-0-0--0--0--0--0--0-2h3-2h3-0-0--0--0--0-1-1--1--1--1-|

00:48
|--------------------------------------|
|--------------------------------------|
|--------------------------------------|
|-0--2h3-0--2h3-0--2h3-0-8-----7---3-2-|
|-0--2h3-0--2h3-0--2h3-0-8-0-0-7-0-3-2-|
|-0--2h3-0--2h3-0--2h3-0-8-0-0-7-0-3-2-|

00:54
|--------------------------------------|
|--------------------------------------|
|--------------------------------------|
|-0--2h3-0--2h3-0--2h3-0-8-----7---3-5-|
|-0--2h3-0--2h3-0--2h3-0-8-0-0-7-0-3-5-|
|-0--2h3-0--2h3-0--2h3-0-8-0-0-7-0-3-5-|

01:00
|-------------------------------------------------|-----------------|
|-------------------------------------------------|-----------------|
|-------------------------------------------------|-----------------|
|-------5/7---5/8-------------3p2-------5/7---5/8-|-0h1-----2---3---|
|-0-0-0-3/5-0-3/6-0-0-0-0-0-0-3p2-0-0-0-3/5-0-3/6-|-0h1-0-0-2-0-3---|
|-0-0-0-----0-----0-0-0-0-0-0-3p2-0-0-0-----0-----|-0h1-0-0-2-0-3---|

01:11
|---------------|
|---------------|
|---------------|
|-----8---7-----|
|-0-0-8---7-----|
|-0-0-8---7-----|

01:36
|---------------------------------------------------------------|
|---------------------------------------------------------------|
|---------------------------------------------------------------|
|-2h3-2h3-0--0-----0--0--0-----0--0---0-0--0--0--------------0--|
|-2h3-2h3-0--0-----0--0--0-----0--0---0-0--0--0-1-1--1--1--1-0--|
|-2h3-2h3-0--0-----0--0--0-----0--0---0-0--0--0-1-1--1--1--1-0--|

not sure if it's corrext or not, but at least there's one Turmion Katilot tab on the 
i'll be sure to submit a few more.
Tap to rate this tab
# A B C D E F G H I J K L M N O P Q R S T U V W X Y Z