Song name
# A B C D E F G H I J K L M N O P Q R S T U V W X Y Z

Turmion Katilot - Sein tab

Official website: http://www.turmionkatilot.com/

listen to song for timing.

|-------------------|--------------------------------| 
|-------------------|--------------------------------| 
|-------------------|--------------------------------| 
|-------------------|--------------------------------| 
|-0-0-0-000-0-0000--|-0-0-0-000-0-00000-0-000-0-0000-| 
|-0-0-0-000-0-0000--|-0-0-0-000-0-00000-0-000-0-0000-| 


|----------------------------------| 
|----------------------------------| 
|----------------------------------| 
|----------------------------------| 
|-000-0-0-000-0-00000-0-0-000-0-00-| 
|-000-0-0-000-0-00000-0-0-000-0-00-| 


|------------------|---------------------| 
|------------------|---------------------| 
|------------------|---------------------| 
|-1----------------|-1-------------1-0---| 
|-1-0-0-000-0-0000-|-1-0-0-000-0-001-0---| 
|-1-0-0-000-0-0000-|-1-0-0-000-0-001-0---| 


|------------------------------------------------------| 
|------------------------------------------------------| 
|------------------------------------------------------| 
|-----1-0--0-------3-0--0-------8-7--0-----8---5---3---| 
|-00001-0--0---00003-0--0---00008-7--0---0-8-0-5-0-3---| 
|-00001-0--0---00003-0--0---00008-7--0---0-8-0-5-0-3---| 


|------------------|----------------------------------| 
|------------------|----------------------------------| 
|------------------|----------------------------------| 
|-1----------------|-1---------------1----------------| 
|-1-0-0-000-0-0000-|-1-0-0-000-0-00001-0-0-000-0-0000-| 
|-1-0-0-000-0-0000-|-1-0-0-000-0-00001-0-0-000-0-0000-| 


|-----------------------------| 
|-----------------------------| 
|-----------------------------| 
|-1---------------8---5---3---| 
|-1-0-0-000-0-00008-0-5-0-3---| 
|-1-0-0-000-0-00008-0-5-0-3---| 


|-----------------------------------------------------| 
|-----------------------------------------------------| 
|-----------------------------------------------------| 
|-3-5-------------3-5-------------5----------3----7---| 
|-3-5-0-0-0-0-0-0-3-5-0-0-0-0-0-0-5----5-5-5-3----7---| 
|-3-5-0-0-0-0-0-0-3-5-0-0-0-0-0-0-5----5-5-5-3----7---| 


|---------------------------------| 
|---------------------------------| 
|---------------------------------| 
|---------------------------------| 
|-3-5-0-0-0-0-0-0-1-0-0-0-0-0-0-0-| 
|-3-5-0-0-0-0-0-0-1-0-0-0-0-0-0-0-| 
Tap to rate this tab
 
# A B C D E F G H I J K L M N O P Q R S T U V W X Y Z