Song name
# A B C D E F G H I J K L M N O P Q R S T U V W X Y Z

Turmion Katilot - Teurastaja tab

Official website: http://www.turmionkatilot.com

listen to song for exact timing.

Sequence 1 (intro) (repeat 2 times)
--------------------------------------|
--------------------------------------|
--------------------------------------|
----0-0-2-0-3-0---0-0-2-0-3-0---------|
----0-0-2-0-3-0---0-0-2-0-3-0---------|
----0-0-2-0-3-0---0-0-2-0-3-0---------| (3x)

-------------------------------------------|
-------------------------------------------|
-------------------------------------------|
---0-0-2-0-3-0---0-0-0-0-0-2-3-5-----------|
---0-0-2-0-3-0---0-0-0-0-0-2-3-5-----------|
---0-0-2-0-3-0---0-0-0-0-0-2-3-5-----------|

(entre intro et song 1) (1x) 0:45
----------------------------------------|
----------------------------------------|
----------------------------------------|
----0-0-0-2-0-3-------------------------|
----0-0-0-2-0-3-------------------------|
----0-0-0-2-0-3-------------------------|

Sequence 2 (song 1) (repeat 4 times) 0:47
-----------------------------------------------------------------------|
-----------------------------------------------------------------------|
-----------------------------------------------------------------------|
-----------0-0-2-0-3-0---0-0-0-0-0----0-2-0-3-0---0-0-0-2-0-3----------|
-----------0-0-2-0-3-0---0-0-0-0-0----0-2-0-3-0---0-0-0-2-0-3----------|
-----------0-0-2-0-3-0---0-0-0-0-0----0-2-0-3-0---0-0-0-2-0-3----------|

Sequence 3 (hand riff repeat 3.5x (silence after half of the 4th recovery )) 1:14
------------------------------------------------------------------------------|
------------------------------------------------------------------------------|
------------------------------------------------------------------------------|
-----0-0-2-0-3-0---0-0-2-0-3-0---0-0-2-0-3-0---0-0-0-0-0-2-3-5----------------|
-----0-0-2-0-3-0---0-0-2-0-3-0---0-0-2-0-3-0---0-0-0-0-0-2-3-5----------------|
-----0-0-2-0-3-0---0-0-2-0-3-0---0-0-2-0-3-0---0-0-0-0-0-2-3-5----------------|

(bitween hand riff and song 2 ) 1:41
------------------------------------------------------|
------------------------------------------------------|
------------------------------------------------------|
-----0-0-0-0-0----0-2-0-3-0---0-0-0-2-0-3-------------|
-----0-0-0-0-0----0-2-0-3-0---0-0-0-2-0-3-------------|
-----0-0-0-0-0----0-2-0-3-0---0-0-0-2-0-3-------------|

Sequence 4 (repeat 3 times) (song 2 ) 1:46
-----------------------------------------------------------------------|
-----------------------------------------------------------------------|
-----------------------------------------------------------------------|
-----------0-0-2-0-3-0---0-0-0-0-0----0-2-0-3-0---0-0-0-2-0-3----------|
-----------0-0-2-0-3-0---0-0-0-0-0----0-2-0-3-0---0-0-0-2-0-3----------|
-----------0-0-2-0-3-0---0-0-0-0-0----0-2-0-3-0---0-0-0-2-0-3----------|

(between song 2 et final) (1 x) 2:31
---------------------------|
---------------------------|
---------------------------|
-------0-0-0-2-0-3---------|
-------0-0-0-2-0-3---------|
-------0-0-0-2-0-3---------|

Final (4x) 2:33
------------------------------------------------------------------------------|
------------------------------------------------------------------------------|
------------------------------------------------------------------------------|
-----0-0-2-0-3-0---0-0-2-0-3-0---0-0-2-0-3-0---0-0-0-0-0-2-3-5----------------|
-----0-0-2-0-3-0---0-0-2-0-3-0---0-0-2-0-3-0---0-0-0-0-0-2-3-5----------------|
-----0-0-2-0-3-0---0-0-2-0-3-0---0-0-2-0-3-0---0-0-0-0-0-2-3-5----------------|
Tap to rate this tab
 
# A B C D E F G H I J K L M N O P Q R S T U V W X Y Z