Song name
# A B C D E F G H I J K L M N O P Q R S T U V W X Y Z

Turmion Katilot - Pimeyden Morsian tab

(7x, disto faible) 00:12
---------------------------------------------------------|
---------------------------------------------------------|
---------------------------------------------------------|
-------5/7------7/5-----5/6-------3/2--------------------|
-------3/5------5/3-----5/6-------3/2--------------------|
-----------0-0-----0-0--5/6--0-0--3/2-0-0----------------|

disto son fort 00:34
---------------------------------------------------------|
---------------------------------------------------------|
---------------------------------------------------------|
-------5/7------7/5-----5/6---2/3---3/2------------------|
-------3/5------5/3-----5/6---2/3---3/2------------------|
------------0-0-----0-0-5/6-0-2/3-0-3/2------------------|

(2x) 00:37
--------------------------------------------------------------------|
--------------------------------------------------------------------|
--------------------------------------------------------------------|
----0----8----3--7-----1-1-0----8----3--------5/6---2/3---3/2-------|
----0----8----3--7-----1-1-0----8----3--------5/6---2/3---3/2-------|
----0----8----3--7-0-0-1-1-0----8----3----0-0-5/6-0-2/3-0-3/2-------|

(7x) 01:02
---------------------------------------------------------|
---------------------------------------------------------|
---------------------------------------------------------|
-------5/7------7/5-----5/6-----3/2----------------------|
-------3/5------5/3-----5/6-----3/2----------------------|
------------0-0-----0-0-5/6-0-0-3/2-0-0------------------|

(1x) 01:23
---------------------------------------------------------|
---------------------------------------------------------|
---------------------------------------------------------|
-------5/7------7/5-----5/6---2/3---3/2------------------|
-------3/5------5/3-----5/6---2/3---3/2------------------|
------------0-0-----0-0-5/6-0-2/3-0-3/2------------------|

(2x) 01:26
--------------------------------------------------------------------|
--------------------------------------------------------------------|
--------------------------------------------------------------------|
----0----8----3--7-----1-1-0----8----3--------5/6---2/3---3/2-------|
----0----8----3--7-----1-1-0----8----3--------5/6---2/3---3/2-------|
----0----8----3--7-0-0-1-1-0----8----3----0-0-5/6-0-2/3-0-3/2-------|

(7x) 01:51
---------------------------------------------------------|
---------------------------------------------------------|
---------------------------------------------------------|
-------5/7------7/5-----5/6------3/2---------------------|
-------3/5------5/3-----5/6------3/2---------------------|
------------0-0-----0-0-5/6-0-0--3/2-0-0-----------------|

(1x) 02:13
---------------------------------------------------------|
---------------------------------------------------------|
---------------------------------------------------------|
-------5/7------7/5-----5/6---2/3----3/2-----------------|
-------3/5------5/3-----5/6---2/3----3/2-----------------|
------------0-0-----0-0-5/6-0-2/3-0--3/2-----------------|

(2x) 02:16
-----------------------------------------------------------------------|
-----------------------------------------------------------------------|
-----------------------------------------------------------------------|
----0----8----3--7------1-1-0----8----3---------5/6-- 2/3----3/2-------|
----0----8----3--7------1-1-0----8----3---------5/6---2/3----3/2-------|
----0----8----3--7-0-0--1-1-0----8----3----0-0--5/6-0-2/3--0-3/2-------|

(6x) 02:41
---------------------------------------------------------|
---------------------------------------------------------|
---------------------------------------------------------|
-------5/7------7/5-----5/6------3/2---------------------|
-------3/5------5/3-----5/6------3/2---------------------|
-----0------0-0-----0-0-5/6-0-0--3/2-0-------------------|

(1x) 03:05
-------------------------------------------|
-------------------------------------------|
-------------------------------------------|
-----------5/6---2/3----3/2----------------|
-----------5/6---2/3----3/2----------------|
-----------5/6-0-2/3-0--3/2----------------|

(2x) 03:07
-----------------------------------------------------------------------|
-----------------------------------------------------------------------|
-----------------------------------------------------------------------|
----0----8----3--7------1-1-0----8----3---------5/6---2/3----3/2-------|
----0----8----3--7------1-1-0----8----3---------5/6---2/3----3/2-------|
----0----8----3--7-0-0--1-1-0----8----3---0-0---5/6-0-2/3-0--3/2-------|

(3x, disto faible) 03:31
---------------------------------------------------------|
---------------------------------------------------------|
---------------------------------------------------------|
-------5/7------7/5-----5/6------3/2---------------------|
-------3/5------5/3-----5/6------3/2---------------------|
------------0-0-----0-0-5/6-0-0--3/2-0-0-----------------|

(8x) 03:41
---------------------------------------------------------|
---------------------------------------------------------|
---------------------------------------------------------|
-------5/7------7/5-----5/6------3/2---------------------|
-------3/5------5/3-----5/6------3/2---------------------|
-----0------0-0-----0-0-5/6-0-0--3/2-0-------------------|

(1x) 04:06
---------------------------------------------------|
---------------------------------------------------|
---------------------------------------------------|
-------5/7------7/5-----5/6----3-3-2---------------|
-------3/5------5/3-----5/6----3-3-2---------------|
-----0-----0-0------0-0-5/6-0--3-3-2---------------|

(4x) 04:09
---------------------------------------------------------------------|
---------------------------------------------------------------------|
---------------------------------------------------------------------|
----0----8----3--7-----1-1-0----8----3--------5/6---2/3----3/2-------|
----0----8----3--7-----1-1-0----8----3--------5/6---2/3----3/2-------|
----0----8----3--7-0-0-1-1-0----8----3----0-0-5/6-0-2/3-0--3/2-------|

Tap to rate this tab
# A B C D E F G H I J K L M N O P Q R S T U V W X Y Z