Song name
# A B C D E F G H I J K L M N O P Q R S T U V W X Y Z

Turntable Rockers - No Melody tab

Help us improve GuitareTab! Take a short survey!
TURNTABLEROCKERS_NOMELODY
CHORDS:
   Fm   G#   G   Cm
e|-1----4----3---3----------------------------------|
H|-1----4----3---4----------------------------------|
G|-1----5----4---5----------------------------------|
D|-3----6----5---5----------------------------------|
A|-3----6----5---3----------------------------------|
E|-1----4----3--------------------------------------|


BASS:
G|------------------------------------------------|
D|------------------------------------------------|
A|----------3--------------------5--3-------------|
E|-1--4--3------------1--4--3---------------------|

e|----------------------------------------------|
H|----------------------------------------------|
G|----------------------------------------------|
D|--3/6-6-6-6-6-6-/10-----3/6-6-6-6-6-6-6---/3--|
A|----------------------------------------------|
E|----------------------------------------------|
 
   
BY BRAINING@HOTMAIL:DE
Related for No Melody tab