Song name
# A B C D E F G H I J K L M N O P Q R S T U V W X Y Z

Tutone Tommy - Jenny Jenny tab

E- - - -0 - 0 -  -  -  -0- - - 0 -  -  -0 - 0 -  - - -  0 -  -         x2
B-  -2 -  -  -   - 3 -   -   -   -2 -  -   -  0-  -4  -   4-  0
Chords F#m  D  A B  E C#m

E-2---------------------------------------2----2-2-0-0-22----------------------
B-2---2--0-0----------0-----2-0-----------2----3-3-2-2-44------2-0-0------0-2-0-
G-2-----------2--2------------------------2----2-2-2-2-44----4-------2--2----
D-----------------------------------4-----------------------------------------
A-----------------------------------------------------------------------------
Repeat when needed
E-2-2-2-0-0-2-2---2-----------------------------------------------------------
B-2-3-3-2-2-4-4---2-2-2-2--3 3--2--2-0----0-2---------------------------------  G-2-2-2-2-2-4-4---2---------------------2--------------------------------------
D-----------------------------------------------------------------------------

(Chords)
E-0--0------------------0--0----------------------------------------------------
B-0----3-2------2-3-2---0----3-2-3----2----0-----2-2-3-3-3-2-2-0---2p0--.-------
G-1---------2-----------1---------------2-------------------------------.------
D------------------------------------------------------------------------------
A------------------------------------------------------------------------------
Repeat
Tap to rate this tab
# A B C D E F G H I J K L M N O P Q R S T U V W X Y Z