Song name
# A B C D E F G H I J K L M N O P Q R S T U V W X Y Z

Tv On The Radio - Caffeinated Consciousness tab

Sorry, this is a pretty unaccurate tab, but its how i see it.

Intro:
e|-----------------5---55------------5---55----------------------------------|
B|-----------------7---77------------7---77----------------------------------|
G|-----------------7---77------------7---77----------------------------------|
D|-----------------7---77------------7---77----------------------------------|
A|-----------------5---55------------5---55----------------------------------|
E|------5h7--9-----5---55----5h7--2--5---55----------------------------------|

  verse
e|-----3-3----55-----3-3----55-------------------------------------------------|
B|-----3-3----55-----3-3----55-------------------------------------------------|
G|-----4-4----66-----4-4----44-------------------------------------------------|
D|-----5-5----77-----5-5----77---------over and over again---------------------|
A|-----5-5----77-----5-5----77-------------------------------------------------|
E|-----3-3----55-----3-3----55-------------------------------------------------|

chorus x2
e|---------------------------------------------------------------------------|
B|---------------------------------------------------------------------------|
G|----5-3-0------------------------------------------------------------------|
D|-----------3-1-3-5---------------------------------------------------------|
A|---------------------------------------------------------------------------|
E|---------------------------3-3-3-3--1-1s3----------------------------------|
Tap to rate this tab
# A B C D E F G H I J K L M N O P Q R S T U V W X Y Z