Song name
# A B C D E F G H I J K L M N O P Q R S T U V W X Y Z

Tv On The Radio - Dlz tab

This is the "la la la" vocal melody.


E|--------------19----19------------19------------------|
B|----------------------------19----------19--17--------|
G|--------16--------------------------------------20----|
D|--18--------------------------------------------------|
A|------------------------------------------------------|
E|------------------------------------------------------|
           
--------------------------------------------------------|
--------------16-------------------------16-------------|
--------16----------18-------------18--------18--16-----|
--18-------------------------16-------------------------|
--------------------------------------------------------|
--------------------------------------------------------|
Tap to rate this tab
# A B C D E F G H I J K L M N O P Q R S T U V W X Y Z