Song name
# A B C D E F G H I J K L M N O P Q R S T U V W X Y Z

Tv On The Radio - Province Live tab

Help us improve GuitareTab! Take a short survey!
-------------------------------------------------------------------------------
			PROVINCE (Live) - TV On the Radio
-------------------------------------------------------------------------------
Tabbed by: In Effigy

Tuning: Standard Drop-D (DADGBe)

Note: This (once again) wasn't tabbed with correct timing in mind, but everything
is here, so you shouldn't have too much trouble figuring everything out.
Enjoy!

Riff 1: Intro/Main Riff (Guitar 1: Kyp)

e|---------------------------------------------------------------------------|
B|---------------------------------------------------------------------------|
G|---------------------------------------------------------------------------|
D|-5-5-5-5-7-7-7-7-7-7-7-7-5-5-5-5-------------------------------------------|
A|--5-5-5-5-5-5-5-5-3-3-3-3-5-5-5-5------------------------------------------|
D|---------------------------------------------------------------------------|

*******************************************************************************
Alternative version of Riff 1:                                                *
e|---------------------------------------------------------------------------|*
B|---------------------------------------------------------------------------|*
G|-0-0-0-0-2-2-2-2-2-2-2-2-0-0-0-0-------------------------------------------|*
D|--0-0-0-0-0-0-0-0---------0-0-0-0------------------------------------------|*
A|------------------3-3-3-3--------------------------------------------------|*
D|---------------------------------------------------------------------------|*
*******************************************************************************

Riff 2: (Guitar 2: Dave)
e|---------------------------------------------------------------------------|
B|-12-12-12-12-12-12-12-12-10-10-10-10-10-10-10-10-17-17-17-17-17-17-17-17---|
G|---------------------------------------------------------------------------|
D|---------------------------------------------------------------------------|
A|---------------------------------------------------------------------------|
D|---------------------------------------------------------------------------|

Riff 2: Continued...
e|---------------------------------------------------------------------------|
B|-12-12-12-12-12-12-12-12---------------------------------------------------|
G|---------------------------------------------------------------------------|
D|---------------------------------------------------------------------------|
A|---------------------------------------------------------------------------|
D|---------------------------------------------------------------------------|

Riff 3: Chorus (Kyp)
e|---------------------------------------------------------------------------|
B|---------------------------------------------------------------------------|
G|-7-6-12-12-12-12-12-12-12-12-12-12-12-12-12-12-12-12-12-12-12-12-12-12-12--|
D|-5-4-10-10-10-10-10-10-10-10-10-10-10-10-10-10-10-10-10-10-10-10-10-10-10--|
A|-5-4-10-10-10-10-10-10-10-10-10-10-10-10-10-10-10-10-10-10-10-10-10-10-10--|
D|-5-4-10-10-10-10-10-10-10-10-10-10-10-10-10-10-10-10-10-10-10-10-10-10-10--|
       "Hold your heart courageously..."

e|---------------------------------------------------------------------------|
B|---------------------------------------------------------------------------|
G|-12-12-12-12-12-12-12-12-12-12-12-12-12-12-12-12-12-12-12-12-12-12-7-6-12--|
D|-10-10-10-10-10-10-10-10-10-10-10-10-10-10-10-10-10-10-10-10-10-10-5-4-10--|
A|-10-10-10-10-10-10-10-10-10-10-10-10-10-10-10-10-10-10-10-10-10-10-5-4-10--|
D|-10-10-10-10-10-10-10-10-10-10-10-10-10-10-10-10-10-10-10-10-10-10-5-4-10--|
"as we walk into                                              this dark place"

Riff 4: Chorus (Dave) *Repeat as needed. Pick really fast.*
e|---------------------------------------------------------------------------|
B|-77777777777777733335555555555555553333777777777777777---------------------|
G|---------------------------------------------------------------------------|
D|---------------------------------------------------------------------------|
A|---------------------------------------------------------------------------|
D|---------------------------------------------------------------------------|

| /  slide up
| \  slide down
| h  hammer-on
| p  pull-off
| ~  vibrato
| +  harmonic
| x  Mute note
=============================================================================
Related for Province Live tab