Song name
# A B C D E F G H I J K L M N O P Q R S T U V W X Y Z

Twang - Barney Rubble Acoustic tab

First Tab. But its pretty accurate.

CAPO 5th

   e:-3--3--0--3
   B:-1--1--1--1
   G:-2--0--2--0
   D:-2--2--3--2
   A:-0--2--3--3
   E:-X--X--X--X

Thats It! Theres Another Bit Which Goes Like This:

NO CAPO

   e:---1----:          ---0----:
   B:--1-1---:          --1-1---:
   G:--------:REPEAT X3 --------:REPEAT X1. Then Back 2 Start
   D:-3------:          -3------:
   A:--------:          --------:
   E:--------:          --------:





And Thats All There Is To The Intro!
Tap to rate this tab
 
# A B C D E F G H I J K L M N O P Q R S T U V W X Y Z