Song name
# A B C D E F G H I J K L M N O P Q R S T U V W X Y Z

Twang - Either Way tab

This is my first tab but it sounds right and it is easy to play. Have fun!

0-0-----0-0--------|
-----0-------0-----|
-------------------|
----1-------1------|
-0-0-----0-0-------|
------00------0040-|

0-0-----0-0--------|
-----0-------0-----|
-------------------|
----1-------1------|
-0-0-----0-0-------|
------00--------00-|
Tap to rate this tab
# A B C D E F G H I J K L M N O P Q R S T U V W X Y Z