Song name
# A B C D E F G H I J K L M N O P Q R S T U V W X Y Z

Twang - Dont Wait Up tab

Main riff thingy (intro/chorus)

e-------1--------------------|
b---2-----2---2--1-------1---|
g-3---3-----3------2---2---2-|
d---------------------3------|

verse Bbm / F

the middle bit that is neither verse nor chorus

e--------------------------------------------------|
b--11----13----14----7--10--14p13p11---------------|
g--------------------------------------------------|
d--------------------------------------------------|
[repeat]

chords - Bbm / Cm / C#maj / F#

pretty simple really just fuck about with the riff at the beginning
Tap to rate this tab
# A B C D E F G H I J K L M N O P Q R S T U V W X Y Z