Song name
# A B C D E F G H I J K L M N O P Q R S T U V W X Y Z

Twang - Cloudy Room tab

                     Cloudy room - The Twang
-------------------------------------------------------------------------------
Tabbed by:Dean Anderson
Email: dta1984@hotmail.co.uk

Tuning: Standard

e|--------------------------------------------------------------------------|
B|--------------------------------------------------------------------------|
G|--------------------------------------------------------------------------|
D|-------------------------------------------0h2h4--4--4--2--0------0h2-----|
A|----2----2---2-----2---2---2---2---2---2---------------------0------------|
E|-0----0----0----0----0---0---0---0----------------------------------------|

e|---------------------------------------------------------------------------------|
B|---------------------------------------------------------------------------------|
G|---------------------------------------------------------------------------------|
D|--2--2--2--0---------------------------------------------------------------------|
A|--------------2------------------------------------------------------------------|
E|---------------------------------------------------------------------------------|


repeat this twice
Tap to rate this tab
 
# A B C D E F G H I J K L M N O P Q R S T U V W X Y Z