Song name
# A B C D E F G H I J K L M N O P Q R S T U V W X Y Z

Twarres - Wr Bisto tab

e:-----2-0--2-----|------2-0-2------|----------------|-------0--------|
b:------------3---|------------3----|-------2--------|----------------|
g:---2----------2-|--------------4--|----------2---2-|-----2----2---2-| 
d:-0--------------|---4-------------|-----4------4---|---2--------2---|
a:----------------|-2---------------|---4------------|-0--------------|
E:----------------|-----------------|-2--------------|----------------|


e:-----2-0--2-----|------2-0-2------|----------------|-------0--------|
b:------------3---|------------3----|-------2--------|----------------|
g:---2----------2-|--------------4--|----------2---2-|-----2----------| 
d:-0--------------|---4-------------|-----4------4---|---2------------|
a:----------------|-2---------------|---4------------|-0--------------|
E:----------------|-----------------|-2--------------|----------------|

Tap to rate this tab
 
# A B C D E F G H I J K L M N O P Q R S T U V W X Y Z