Guitaretab - guitar tabs
Song name
# A B C D E F G H I J K L M N O P Q R S T U V W X Y Z

Twarres - Wer Bisto tab

When I had to look for a good tab of this song, I found out every single tab was quite
to play (I'm not yet very amazing at playing guitar..) and not one of them seemed to be
So I was forced to find out a simple one myself. Eventually I made one that even sounds 
I also made some variations in the intro. (hammer and pull)

Intro(2x):
e|-----0---0---------|-----------------|---------------|---------------|
B|-------3---1h3p1---|-----1-0h1p0-----|-------0-------|-------3-------|
G|---0-------------0-|-------------2---|-----0---0---0-|-----0---0---0-|
D|-------------------|---2-----------2-|---2-------2---|---0-------0---|
A|-3-----------------|-0---------------|---------------|---------------|
E|-------------------|-----------------|-0-------------|-3-------------|

Chords:

Dm                G
Doe't ik dy seach lang ferlyn
Dm                         G
Wat docht it dochs sear as ik d'r wer oan tink
Dm                G
Doe't ik dy seach lang ferlyn
Dm                         G
Wat docht it dochs sear as ik d'r wer oan tink


C
Ik sjoch dy
Am
Ik hear dy
Dm        G              C
Ik fiel dy, eltse kear opnij
C
Ik sjoch dy
Am
Ik hear dy
Dm        G              C
Ik fiel dy, eltse kear opnij


Dm    F    Dm    F    Dm    F
Oeh...

[ Tab from: http://www.guitaretab.com/t/twarres/26314.html ]
         C
Hjir bin ik
       Am
Wr bisto
          Em     G
It is al lang lyn
         C
Hjir bin ik
       Am
Wr bisto
          Em     G
It is te lang lyn


C           Am       Em  G
Do bist net oars dan leaf
     C           Am           Em   G
Want do dochst gewoan neat ferkeard
C           Am          Em  G
Ik hld fan dy, sa asto bist
C            Am        Em   G
Dast dat dan wol efkes witst


Intro(2x):
e|-----0---0---------|-----------------|---------------|---------------|
B|-------3---1h2p1---|-----1-0h1p0-----|-------0-------|-------3-------|
G|---0-------------0-|-------------2---|-----0---0---0-|-----0---0---0-|
D|-------------------|---2-----------2-|---2-------2---|---0-------0---|
A|-3-----------------|-0---------------|---------------|---------------|
E|-------------------|-----------------|-0-------------|-3-------------|

         C
Hjir bin ik
       Am
Wr bisto
          Em     G
It is al lang lyn
         C
Hjir bin ik
       Am
Wr bisto
          Em     G
It is te lang lyn


C           Am       Em  G
Do bist net oars dan leaf
     C           Am           Em   G
Want do dochst gewoan neat ferkeard
C           Am          Em  G
Ik hld fan dy, sa asto bist
C            Am        Em   G
Dast dat dan wol efkes witst


C
Ik sjoch dy
Am
Ik hear dy
Dm        G              C
Ik fiel dy, eltse kear opnij
C
Ik sjoch dy
Am
Ik hear dy
Dm        G              C
Ik fiel dy, eltse kear opnij
C
Eltse kear opnij
Related for Wer Bisto tab