Song name
# A B C D E F G H I J K L M N O P Q R S T U V W X Y Z

Tweak - Buy The World tab

Tabber: Andrew Flower

Song: Buy the world
Artist: Tweak
Album: The romantic lure od possum worship
Tuning: eadgbe

Intro

e------------------------------------|
b------------------------------------|
g--9---9---8---8---9---9---8---------|
d----9---9---9---9---9---9-----------|
a------------------------------------|
e------------------------------------|

Intro pt.2  - distortion x 8

e------------------|
b------------------|
g--9---9---8---8---|
d----9---9---9---9-|
a------------------|
e------------------|

Intro pt.2  - distortion x 4

e------------------------------------------------|
b------------------------------------------------|
g-9-9-9-9----------------------------------------|
d-9-9-9-9--6-6-6-6--7-7-7-7--9-9-9-9-------------|
a-7-7-7-7--6-6-6-6--7-7-7-7--9-9-9-9-------------|
e----------4-4-4-4--5-5-5-5--7-7-7-7-------------|

Stop...
Bass plays the riff twice.

Verse  - distortion x 8

e------------------------------------------------|
b------------------------------------------------|
g-9-9-9-9----------------------------------------|
d-9-9-9-9--6-6-6-6--7-7-7-7--9-9-9-9-------------|
a-7-7-7-7--6-6-6-6--7-7-7-7--9-9-9-9-------------|
e----------4-4-4-4--5-5-5-5--7-7-7-7-------------|

Guitar 2 comes in after 4 times
Verse  - distortion x 4

e------12--11------12--11------12--11---------------|
b--12----------12----------12----------12---14---12-|
g---------------------------------------------------|
d---------------------------------------------------|
a---------------------------------------------------|
e---------------------------------------------------|

Chorus - distortion x 2

e--------------------------------------------------------------------|
b--------------------------------------------------------------------|
g-9-9-9-9-9-9-9-9----------------------------------------------------|
d-9-9-9-9-9-9-9-9--6-6-6-6-6-6-6-6--7-7-7-7-7-7-7-7--9-9-------------|
a-7-7-7-7-7-7-7-7--6-6-6-6-6-6-6-6--7-7-7-7-7-7-7-7--9-9-------------|
e------------------4-4-4-4-4-4-4-4--5-5-5-5-5-5-5-5--7-7-------------|

Intro pt.2  x 4 and  x 2
bass solo x 2
Verse with same principals
chorus

Solo x 3

e----------------------------------------|
b----------------------------------------|
g--9-9-9-9-------------------------------|
d--9-9-9-9--6-7-9-7----------------------|
a--7-7-7-7--6-7-9-7----------------------|
e-----------4-5-7-5----------------------|

Last Chorus - distortion x 4

e------------------------------------------------|
b------------------------------------------------|
g-9-9-9-9----------------------------------------|
d-9-9-9-9--6-6-6-6--7-7-7-7--9-9-9-9-------------|
a-7-7-7-7--6-6-6-6--7-7-7-7--9-9-9-9-------------|
e----------4-4-4-4--5-5-5-5--7-7-7-7-------------|
Tap to rate this tab
 
# A B C D E F G H I J K L M N O P Q R S T U V W X Y Z