Song name
# A B C D E F G H I J K L M N O P Q R S T U V W X Y Z

Tweak - Girls Rule The World tab

Girls Rule The World
Tweak
Dirty Sanchez and the Misfit Kids
Tabbed By: Mike

Intro
e|----------------------------------------|
B|----------------------------------------|
G|----------------------------------------|
D|---------------------8-8----------------|
A|-8-8--x-x---8-8--8---6-6------------8---|
E|-6-6--x-x---6-6--6---------8-10-11------|

Interlude
Guitar 1
e|-----------------x-2----|
B|------x-4---------------|
G|-4-4--------4-4---------|
D|------------------------|
A|------------------------|
E|------------------------|

Guitar 2
e|--------------------------------------------------|
B|--------------------------------------------------|
G|----------------------x-x--8-8-8-8-x-x--8-8-8-8---|
D|-8-8-8-8-x-x--8-8-8-8-x-x--8-8-8-8-x-x--8-8-8-8---|
A|-8-8-8-8-x-x--8-8-8-8-x-x--6-6-6-6-x-x--6-6-6-6---|
E|-6-6-6-6-x-x--6-6-6-6-----------------------------|

Verse
e|-----------------------------------------|
B|-----------------------------------------|
G|-----------------------------------------|
D|----------------------8-8----------------|
A|-8-8--x-x---8-8--x-x--6-6------------8---|
E|-6-6--x-x---6-6--x-x--------8-10-11------|

Pre Chorus (Palm mute)
e|------------------------------------|
B|------------------------------------|
G|------------------------------------|
D|------------------8-8-8-8-8-8-8-8---|
A|-8-8-8-8-8-8-8-8--6-6-6-6-6-6-6-6---|
E|-6-6-6-6-6-6-6-6--------------------|

Chorus
e|--------------------------------------------------|
B|--------------------------------------------------|
G|----------------------x-x--8-8-8-8-x-x--8-8-8-8---|
D|-8-8-8-8-x-x--8-8-8-8-x-x--8-8-8-8-x-x--8-8-8-8---|
A|-8-8-8-8-x-x--8-8-8-8-x-x--6-6-6-6-x-x--6-6-6-6---|
E|-6-6-6-6-x-x--6-6-6-6-----------------------------|

Pre Verse
e|-----------------------------------------|
B|-----------------------------------------|
G|-----------------------------------------|
D|----------------------8-8----------------|
A|-8-8--x-x---8-8--x-x--6-6------------8---|
E|-6-6--x-x---6-6--x-x--------8-10-11------|

Bridge
e|----------------------------------------|
B|----------------------------------------|
G|----------------------------------------|
D|---------------------8-8----------------|
A|-8-8--x-x---8-8--8---6-6------------8---|
E|-6-6--x-x---6-6--6---------8-10-11------|

(It's up to you...)
e|------------------------------------|
B|------------------------------------|
G|------------------------------------|
D|------------------8-8-8-8-8-8-8-8---|
A|-8-8-8-8-8-8-8-8--6-6-6-6-6-6-6-6---|
E|-6-6-6-6-6-6-6-6--------------------|

e|-------------|
B|-------------|
G|-------------|
D|-8-8---8-8---|
A|-8-8---8-8---|
E|-6-6---6-6---|

Outro
e|--------------------------------------------------|
B|--------------------------------------------------|
G|----------------------x-x--8-8-8-8-x-x--8-8-8-8---|
D|-8-8-8-8-x-x--8-8-8-8-x-x--8-8-8-8-x-x--8-8-8-8---|
A|-8-8-8-8-x-x--8-8-8-8-x-x--6-6-6-6-x-x--6-6-6-6---|
E|-6-6-6-6-x-x--6-6-6-6-----------------------------|
Tap to rate this tab
# A B C D E F G H I J K L M N O P Q R S T U V W X Y Z