Guitaretab - guitar tabs
Song name
# A B C D E F G H I J K L M N O P Q R S T U V W X Y Z

Tweaker - Happy Child tab

This is my acoustic interpretation of "Happy Child."  It's super fun to play.  Enjoy!

-----------------------------------------------------------------------
Happy Child (Acoustic) Ė Tweaker (Chris Vrenna)
-----------------------------------------------------------------------
Tabbed by: theyignite
Email:theyignite@hotmail.com

Tuning: E standard

intro
e|-----------2-----------------0--------|
B|-----3-------3---3-------------3---3--|
G|--------2------2---------2-------2----|  (x2)
D|---0-------------------0---0----------|
A|-0-------------------0----------------|
E|--------------------------------------|

lead in to verse 1 (:14)
e|----------2----------------5---------|
B|-----3------3---3------3-----3---3---|
G|-------2------2----------2-----2-----|  (x2)
D|---0-----------------0---------------|
A|-0-----------------0-----------------|
E|-------------------------------------|

verse 1 (:27)
E|---------2---------------0---------------0---------------3-------|
B|-----3-----3---3-----------3---3-----------3---3-----------3---3-|
G|-------2-----2-------2-------2-------4-------0-------0-------0---|
D|---0---------------0---0-----------4---4---------------0---------|
A|-0---------------0---------------2-----------------2-------------|
E|-------------------------------------------------3---------------|

E|---------2---------------0---------------0----------------3-------|
B|-----3-----3---3-----------3---3-----------3---3------------3---3-|
G|-------2-----2-------2-------2-------4-------0-------0--------0---|
D|---0---------------0---0-----------4---4---------------0----------|
A|-0---------------0---------------2-----------------2--------------|
E|-------------------------------------------------3----------------|


[Chorus 1 Ė strummed] (:55)

D            D5
  Donít cry.    Donít feel.

Bm                   G
   Donít die because death is not real

D           D5
  Itís good.   Itís yours,

Bm                         G
   And it should come when things have run their course.


lead in to verse 2 (1:22)
e|----------2---------------------0----|
B|-----3------3---3-----------3-----3--|
G|-------2------2--------2------2------|  (x2)
D|---0-----------------2---2-----------|
A|-0-----------------0-----------------|
E|-------------------------------------|
[ Tab from: http://www.guitaretab.com/t/tweaker/187456.html ]
verse 2 (1 :36)
E|---------2---------------0---------------0---------------3-------|
B|-----3-----3---3-----------3---3-----------3---3-----------3---3-|
G|-------2-----2-------2-------2-------4-------0-------0-------0---|
D|---0---------------0---0-----------4---4---------------0---------|
A|-0---------------0---------------2-----------------2-------------|
E|-------------------------------------------------3---------------|

E|---------2---------------0---------------0----------------3-------|
B|-----3-----3---3-----------3---3-----------3---3------------3---3-|
G|-------2-----2-------2-------2-------4-------0-------0--------0---|
D|---0---------------0---0-----------4---4---------------0----------|
A|-0---------------0---------------2-----------------2--------------|
E|-------------------------------------------------3----------------|


[Chorus 2 Ė strummed] (2:03)

D           D5
  Donít cry.    Donít feel.

Bm                       G
   You wonít die because I donít think deathís real.

D           D5
  Itís good.   Itís mine,

Bm                          G
   And it should be at your heels all of the time.


Intro Bridge (2:31)

E|-------------0----------------0----|
B|---------3-----3----------3-----3--|
G|-----2-----2----------2-----2------|
D|---2---2------------2---2----------|
A|-0----------------0----------------|
E|-----------------------------------|


Bridge Ė strummed (2:38)

F                    C
  And whereís the sky for me now?

G              Dsus2
  And who will take it down?

F              C
  And drape it all around me

G               Dsus2
Every cloud and cosmo for a gown.


Post-Bridge (3:05)
e|-----------2-----------------0--------|
B|-----3-------3---3-------------3---3--|
G|--------2------2---------2-------2----|
D|---0-------------------0---0----------|
A|-0-------------------0----------------|
E|--------------------------------------|

Verse 3 (3:19)
E|---------2---------------0---------------0---------------3-------|
B|-----3-----3---3-----------3---3-----------3---3-----------3---3-|
G|-------2-----2-------2-------2-------4-------0-------0-------0---|
D|---0---------------0---0-----------4---4---------------0---------|
A|-0---------------0---------------2-----------------2-------------|
E|-------------------------------------------------3---------------|


[Chorus 3 -  strummed] (3:33)

D            D5
  Donít cry.    Donít feel.

Bm                   G
   Donít die because death is not real

D            D5
  Itís good.   Itís ours,

Bm                                        G
   Like the sun, like the worms, like the wind, like the flowers


Outro (4:00)
e|-----------2-----------------0--------|
B|-----3-------3---3-------------3---3--|
G|--------2------2---------2-------2----|  (x2)
D|---0-------------------0---0----------|
A|-0-------------------0----------------|
E|--------------------------------------|

[END}
Related for Happy Child tab